PrimaNota.ru - самый крупный в мире бесплатный архив песенных текстов, аккордов, табулатур и нот


The Raconteurs - Consolers Of The Lonely - текст песни, таба, бас-таба, видео

Регистрация Запомнить меня
Войти через:  Facebook Google Twitter Vk Yandex Mail.ru

The Raconteurs - Consolers Of The Lonely - текст песни, таба, бас-таба, видео

Печатать
Просмотров: 191
The Raconteurs
Consolers of the Lonely
tabbed by: kse_fanatic_69

Intro:
E|---------------------------------------------------------------------------|
B|---------------------------------------------------------------------------|
G|------3---3p2p0--------3-------3-2------3-------3-2-------3-2-------3-2-0--|
D|-------------------------0-3-0------------0-3-0-----0-3-0-----0-3-0--------|
A|---------------------------------------------------------------------------|
E|--3b---------------3---------------2/3-------------------------------------|


0:18
E|---|
B|---|
G|---|
D|-5-|
A|-5-|
E|-3-|


0:28
E|------------|-------------|-----------|------------|
B|------------|-------------|-----------|------------|
G|------------|-------------|-----------|------------|
D|-5--3--5----|-5--3--5-----|-5\3--3\3--|-5--3--5----|
A|-5--3--5--x4|-3--1--3--x2-|-3\1--1\0--|-5--3--5--x2|
E|-3--1--3----|-3--1--3-----|-3\1--1\0--|-3--1--3----|


1:07
E|---------------|
B|---------------|
G|-7--10--7------|
D|-7--10--7--3--5|
A|-5--8---5--3--5|
E|-----------1--3|


1:16
E|--2--2-------------|  |------------------------|
B|--2--2-------------|  |------------------------|
G|--0--0--------3-2--|  |--------3-2--------3-2-0|
D|--0--0--0-3-0------|x3|--0-3-0------0-3-0------|
A|--2--2-------------|  |------------------------|
E|--3--3-------------|  |------------------------|


1:29
E|--2--2-------------|  |------------------------|
B|--2--2-------------|  |------------------------|
G|--0--0--------3-2--|  |--------3-2--------3-2-0|
D|--0--0--0-3-0------|x3|--0-3-0------0-3-0------|
A|--2--2-------------|  |------------------------|
E|--3--3-------------|  |------------------------|


1:40
E|--2--2-------------|  |------------------------|
B|--2--2-------------|  |------------------------|
G|--0--0--------3-2--|  |--------3-2--------3-2-0|
D|--0--0--0-3-0------|x3|--0-3-0------0-3-0------|
A|--2--2-------------|  |------------------------|
E|--3--3-------------|  |------------------------|


1:54
E|------------|-------------|-----------|------------|
B|------------|-------------|-----------|------------|
G|------------|-------------|-----------|------------|
D|-5--3--5----|-5--3--5-----|-5\3--3\3--|-5--3--5----|
A|-5--3--5--x2|-3--1--3--x2-|-3\1--1\0--|-5--3--5--x2|
E|-3--1--3----|-3--1--3-----|-3\1--1\0--|-3--1--3----|


2:22
E|---------------|
B|---------------|
G|-7--10--7------|
D|-7--10--7--3--5|
A|-5--8---5--3--5|
E|-----------1--3|


2:33
E|--------------------------------------------------|
B|--------------------------------------------------|
G|--------------------------------------------------|
D|--------------------------------------------------|x7
A|--------------------------------------------------|
E|--1--3--3--3--3--3--3--3--1--3--3--3--3--3--3--3--|


2:41
E|-------------|
B|-------------|
G|-3--3--3--3--|
D|-3--3--3--3--|
A|-1--1--1--1--|
E|-------------|


2:43
E|--14h16v----14h16v----14h16v----14h16h19----14h16h19----|
B|--------------------------------------------------------|
G|--------------------------------------------------------|
D|--------------------------------------------------------|x3
A|--------------------------------------------------------|
E|--------------------------------------------------------|


2:47
E|--------------------------------------------------------|
B|--------------------------------------------------------|
G|--3--3--3--3--------------------------------------------|
D|--3--3--3--3--3\5--3\5--3\5--3--3--3\5--3\5--3\5--3--3--|
A|--1--1--1--1--3\5--3\5--3\5--1--1--3\5--3\5--3\5--1--1--|
E|--------------1\3--1\3--1\3--1--1--1\3--1\3--1\3--1--1--|


2:57
E|--14h16--14h16v--14h16--16p14v--14h16--16p14v--14h16h19--14h16h19--|
B|-------------------------------------------------------------------|
G|-------------------------------------------------------------------|
D|-------------------------------------------------------------------|x2
A|-------------------------------------------------------------------|
E|-------------------------------------------------------------------|


2:57
E|-------------------------------------------------------------------------|
B|-------------------------------------------------------------------------|
G|-------------------------------------------------------------------------|
D|---3\5--3\5--3\5--3\5--3\5--3\5--3--3--3\5--3\5--3\5--3\5--3\5--3\5--3--3|
A|---3\5--3\5--3\5--1\5--3\5--3\5--1--1--3\5--3\5--3\5--1\5--3\5--3\5--1--1|
E|---1\3--1\3--1\3--1\3--1\3--3\5--1--1--1\3--1\3--1\3--1\3--1\3--3\5--1--1|


3:05
E|--14h16h19--14h16h19--14h16h19--14h16h19|
B|----------------------------------------|
G|----------------------------------------|
D|----------------------------------------|
A|----------------------------------------|
E|----------------------------------------|


3:05
E|--------------|
B|--------------|
G|--------------|
D|--3--3--3--3--|
A|--1--1--1--1--|
E|--1--1--1--1--|


3:08
E|--------------------------------------------------|
B|--------------------------------------------------|
G|--------------------------------------------------|
D|--------------------------------------------------|x3
A|--------------------------------------------------|
E|--1--3--3--3--3--3--3--3--1--3--3--3--3--3--3--3--|


3:12
E|--16--16--19----16--16--19----16--16--19----16--16--19----14--16|
B|----------------------------------------------------------------|
G|----------------------------------------------------------------|
D|----------------------------------------------------------------|
A|----------------------------------------------------------------|
E|----------------------------------------------------------------|


3:12
E|-----------------|
B|-----------------|
G|-----------------|
D|--3--3--3--3--3\5|
A|--1--1--1--1--3\5|
E|--1--1--1--1--1\3|

repeat intro
Добавлено: 07.09.2013
Другие материалы по этой песне:

Страница создана 24.06.2013
http://primanota.ru/the-raconteurs/consolers-of-the-lonely-chords.htm
Привет, Гость.
Предлагаем пройти революционный курс по гитаре.
Подарок от PrimaNota.Ru, забирай!