PrimaNota.ru - самый крупный в мире бесплатный архив песенных текстов, аккордов, табулатур и нот


The Police - Chasing Cars - таба, видео

Регистрация Запомнить меня
Войти через:  Facebook Google Twitter Vk Yandex Mail.ru

The Police - Chasing Cars - таба, видео

Печатать
Просмотров: 111
IT AUTOMATICALLY SWITCHED TO 'THE POLICE', THIS SONG IS BY SNOW PATROL. SORRY!!

My favorite Snow Patrol song, i just threw the piano bit in with the guitar and then 
added a second guitar for the chorus. Rates and such please :D

Guitar 1: Slight Distance, Smooth
Guitar 2: Slight Distortion, Quieter Than Guitar 1
Chords: Capo 2nd fret

Intro:
e|------------------------------------------------------------------|
B|------------------------------------------------------------------|
G|--9-9-9-9-9-9-9-9-9-9-9-9-9-9-9-9-9-9-9-9-9-9-9-9-9-9-9-9-9-9-9-9-|
D|-7-7-7-7-7-7-7-7-7-7-7-7-7-7-7-7-6-6-6-6-6-6-6-6-0-0-0-0-0-0-0-0--|
A|------------------------------------------------------------------|
E|------------------------------------------------------------------|

Verse:
     G                          D                   C             G
e|----------------------9---------------9-------------------9-------|
B|------------------------9----10-----------9------9/7----7----9--10|
G|--9-9-9-9-9-9-9-9-9-9-9-9-9-9-9-9-9-9-9-9-9-9-9-9-9-9-9-9-9-9-9-9-|
D|-7-7-7-7-7-7-7-7-7-7-7-7-7-7-7-7-6-6-6-6-6-6-6-6-0-0-0-0-0-0-0-0--|
A|------------------------------------------------------------------|
E|------------------------------------------------------------------|

Chorus: Gtr 1
  G                   D                 C                 G
e|---------------------------------------------------------------------------|
B|---------------------------------------------------------------------------|
G|--------------------------------------7-7-7-7-7-7-7-7-7--------------------|
D|-7-7-7-7-7-7-7-7-7--6-6-6-6-6-6-6-6-6-7-7-7-7-7-7-7-7-7--7-7-7-7-7-7-7-7-7-|
A|-7-7-7-7-7-7-7-7-7--7-7-7-7-7-7-7-7-7-5-5-5-5-5-5-5-5-5--7-7-7-7-7-7-7-7-7-|
E|-5-5-5-5-5-5-5-5-5--4-4-4-4-4-4-4-4-4--------------------5-5-5-5-5-5-5-5-5-|

Chorus: Gtr 2
e|----------------------------------------------------------------------------|
B|-10-10-10-10-10-10-10-10-10-10-10-10-10-10-10-10-10-10-10-10-10-10-10-10-10-|
G|-9--9--9--9--9--9--9--9--9--9--9--9--9--9--9--9--9--9--9--9--9--9--9--9--9--|
D|-7--7--7--7--7--7--7--7--7--7--7--7--7--6--6--6--6--6--6--6--6--0--0--0--0--|
A|----------------------------------------------------------------------------|
E|----------------------------------------------------------------------------|

e|----------------------------------------------------------------------------|
B|10-10-10-10-----------------------------------------------------------------|
G|9--9--9--9------------------------------------------------------------------|
D|0--0--0--0---7-7-7-7--9-9-9-9-11-11-11-11-11-11-11-11-----------------------|
A|-------------x-x-x-x--x-x-x-x--x--x--x--x--x--x--x--x-----------------------|
E|-------------5-5-5-5--7-7-7-7--9--9--9--9--9--9--9--9-----------------------|

Outro:
(No Chords)
e|------------------------------------------------------------------|
B|------------------------------------------------------------------|
G|--9-9-9-9-9-9-9-9-9-9-9-9-9-9-9-9-9-9-9-9-9-9-9-9-9-9-9-9-9-9-9-9-|
D|-7-7-7-7-7-7-7-7-7-7-7-7-7-7-7-7-6-6-6-6-6-6-6-6-0-0-0-0-0-0-0-0--|
A|------------------------------------------------------------------|
E|------------------------------------------------------------------|
Добавлено: 26.11.2013
Другие материалы по этой песне:
  • Аккорды и текст

Страница создана 26.11.2013
http://primanota.ru/the-police/chasing-cars-chords.htm
Привет, Гость.
Предлагаем пройти революционный курс по гитаре.
Подарок от PrimaNota.Ru, забирай!