PrimaNota.ru - самый крупный в мире бесплатный архив песенных текстов, аккордов, табулатур и нот


The Pogues - Recruiting Sergeant - текст песни, бас-таба, видео

Регистрация Запомнить меня
Войти через:  Facebook Google Twitter Vk Yandex Mail.ru

The Pogues - Recruiting Sergeant - текст песни, бас-таба, видео

Печатать
Просмотров: 163


THE RECRUITING SERGEANT
THE POGUES
BASS TAB
The bass joins in on the second verse, where you play riff 1.
Then play riff 2 for verse 3, where Shane joins in.
Then riff 3 for verse 4.

RIFF 1
G|-----------------|---------------------|-------------------|-----------------|
D|-----------------|---------------------|-------------------|-----------------|
A|--7--------------|--10-----------------|--7----------------|--7--------------|
E|-----------------|------------10-------|-------------------|-----------------|

RIFF 2
G|-----------------|---------------------|-------------------|-----------------|
D|-----------------|---------------------|-------------------|-----------------|
A|--7---7---7---7--|--10---10------------|--7---------7---7--|--7---7---7---7--|
E|-----------------|------------10---10--|------10-----------|-----------------|

RIFF 3
G|-----------------|---------------------|-------------------|-----------------|
D|------9-------9--|-------12------------|----------------9--|------9-------9--|
A|--7-------7------|--10-------------12--|--7---------7------|--7-------7------|
E|-----------------|------------10-------|------10-----------|-----------------|


Добавлено: 12.08.2013
Другие материалы по этой песне:
  • Аккорды и текст

Страница создана 12.08.2013
http://primanota.ru/the-pogues/recruiting-sergeant-chords.htm
Привет, Гость.
Предлагаем пройти революционный курс по гитаре.
Подарок от PrimaNota.Ru, забирай!