PrimaNota.ru - самый крупный в мире бесплатный архив песенных текстов, аккордов, табулатур и нот


The National - Wasp Nest - аккорды и текст, таба, видео

Регистрация Запомнить меня
Войти через:  Facebook Google Twitter Vk Yandex Mail.ru

The National - Wasp Nest - аккорды и текст, таба, видео

Печатать
Просмотров: 278
Авторы: Aaron Dessner, Matt Berninger

Wasp Nest
The National
ubi_rex@hotmail.com

Capo 3
I use my thumb for the "F#" (the low 2).  Pull the "B" off to "A"
or the "A" to the "E" to add some color. More notes at the bottom.

 D5       F#m      G        D        A/F#     G       color
---------|--------|--------- ---0---0-|--0---0-|----- ------5p0---|
---3---3-|--2---2-|--------- ---3---3-|--2---2-|----- ------------|
---2---2-|--2---2-|--2------ ---2---2-|--2---2-|--2-- -4p2--------|
-0----0--|--------|--------- -0----0--|--------|--0-- ------------|
---------|--------|--------- ---------|--------|----- ------------|
---------|2----2--|3-------- ---------|2----2--|3---- ------------|


       D5        F#m        G
You're cussing a storm in a cocktail dress 
     D5          F#m        G 
your mother wore       when she was young
D5           F#m       G
Red southern saint around   your neck
  D5     F#m       G
A wet martini in a paper cup

            D     A/F#      G 
You're a wasp nest
            D     A/F#      G 
You're a wasp nest

     D5       F#m       G 
Your eyes are broken bottles
D5      F#m          G
   And I'm afraid to ask
    D5        F#m      G
And all your wrath and cutting beauty
       D5     F#m           G
You're poison in the pretty glass

            D     A/F#      G 
You're a wasp nest
            D     A/F#      G 
You're a wasp nest

       D          A/F#      G
You're all humming      live     wires 
D         A/F#            G
under your killing clothes.
D       A/F#       G
Get over here, I wanna 
D        A/F#          G
kiss your skinny throat

            D    A/F#      G 
You're a wasp nest
            D    A/F#      G 
You're a wasp nest

------------------------------------------
Notes

There's more than one guitar, and you start hear added notes like this.
I play this down an octave or drop the chord and move my hand up 
for a moment.

Capo 3
                    or
---0---7p5--------      ---0---0----------|
---3--------------      ---3---3----------|
---2--------------      ---2---4p2--------|
-0----0-----------      -0----0-----------|
------------------      ------------------|
------------------      ------------------|

You might be able to play the flourishes better if you move the
capo to the 8th fret and D chords to A chords.
The problem is you can't play the G# in the bass

A5       A5/F#    A5/G     or  A2     etc            
---------|--------|---------   -------0--2p0---------------|
---------|--------|---------   ---0---0--------------------|
---2---2-|--2---2-|--2------   ---2---2--------------------|
---2---2-|--2---2-|--2------   ---2---2--------------------|
-0----0--|--------|---------   -0----0---------------------|
---------|?----?--|0--------   ----------------------------|
Добавлено: 02.03.2012
Другие материалы по этой песне:
  • Аккорды и текст

Страница создана 02.03.2012
http://primanota.ru/the-national/wasp-nest-chords.htm
Привет, Гость.
Предлагаем пройти революционный курс по гитаре.
Подарок от PrimaNota.Ru, забирай!