PrimaNota.ru - самый крупный в мире бесплатный архив песенных текстов, аккордов, табулатур и нот


The Letter Black - Fire With Fire - таба, видео

Регистрация Запомнить меня
Войти через:  Facebook Google Twitter Vk Yandex Mail.ru

The Letter Black - Fire With Fire - таба, видео

Печатать
Просмотров: 53
Tuning is Drop C / 170 BPM
Intro
D||---------------------------|---------------------------||
A||---------------------------|---------------------------||
F||*--------------------------|--------------------------*|| 2X
C||*--2--2--0--2--0-----0--0--|-----0--0--0-----0--0--0--*||
G||---2--2--0--2--0-----0--0--|-----0--0--0-----0--0--0---||
C||---2--2--0--2--0-----0--0--|-----0--0--0-----0--0--0---||


D||-------------------------------|--------------------------------
A||-------------------------------|--------------------------------
F||-------------------------------|--------------------------------
C||--14--14--12--14--12--9----10--|-----10--10--10--12--12--12-----
G||--14--14--12--14--12--9----10--|-----10--10--10--12--12--12-----
C||--14--14--12--14--12--9----10--|-----10--10--10--12--12--12-----




pre chours

   PM PM PM PM    PM PM      
|---------------------------|
|---------------------------|
|---------------------------|
|--------------9--------10--|
|--7--7--7--7-----7--7------|
|---------------------------|


  PM PM PM PM    PM PM       PM PM PM PM    PM PM                
--------------------------|--------------------------||
--------------------------|--------------------------||
--------------------------|--------------------------||
--------------9--------7--|--------------9--------7--||
--7--7--7--7-----7--7-----|--7--7--7--7-----7--7--7--||
--------------------------|--------------------------||


legend:
PM= palm mute
Добавлено: 25.05.2016
Другие материалы по этой песне:
  • Аккорды и текст

Страница создана 25.05.2016
http://primanota.ru/the-letter-black/fire-with-fire-chords.htm
Привет, Гость.
Предлагаем пройти революционный курс по гитаре.
Подарок от PrimaNota.Ru, забирай!