PrimaNota.ru - самый крупный в мире бесплатный архив песенных текстов, аккордов, табулатур и нот


The Letter Black - My Disease - текст песни, таба, бас-таба, видео

Регистрация Запомнить меня
Войти через:  Facebook Google Twitter Vk Yandex Mail.ru

The Letter Black - My Disease - текст песни, таба, бас-таба, видео

Печатать
Просмотров: 411
My Disease by The Letter Black

[ tab by Jacob Croman / DropDaStrings ]

THIS IS THE CORRECT TAB FOR GUITAR 1!
_____________________________________
 ___________________________________
 
Key:
/ = SLIDE UP
\ = SLIDE DOWN
^ = BEND UP
x = MUTE




INTRO
e|-----------------------|----------------------------------------|
B|-----------------------|----------------------------------------|
G|-----------------------|----------------------------------------|
D|---------------------x2|----------------------------------------|
A|-8—8-8-7-8-8-8-7/8\7---|-10-10-10-10-10-10-10-10-8-8-8-8-7-7-7-7|
D|-0-0-0-0-0-0-0---------|-8--8--8--8--8--8--8--8--7-7-7-7-7-7-7-7|


verse 1
e|-----------------------|-----------------------|
B|-----------------------|-----------------------|
G|-----------------------|-----------------------| x2
D|-----------------------|-----------------------|
A|-8—8-8-7-8-8-8-7/8\7---|-10-10-10-10-10-8-8-7-7|
D|-0-0-0-0-0-0-0---------|-8--8--8--8--8--7-7-7-7|

Pre-chorus
e--------------------------------|-----------------------------------------|
B--------------------------------|-----------------------------------------|
G--------------------------------|-----------------------------------------|
D--------------------------------|-----------------------------------------|
A-8-8-8-8-7-7-7-7-8-8-8-8-7-7-7-7|-10-10-10-10-7-7-7-7-8-8-8-8-7-7-7-7--8-8|
D--------------------------------|--------------------------------------0-0|


Chorus                            x3
e--------------------------------|
B--------------------------------|
G--------------------------------|
D-7-7-7-7-5-5-5-5-3-3-3-3--------|
A-5-5-5-5-3-3-3-3-1-1-1-1-5-5-5-5|
D-------------------------5-5-5-5|

e----------------|-------------------------------------------------------------|
B----------------|-------------------------------------------------------------|
G----------------|-------------------------------------------------------------|
D-3-3-3-3-5-5-5-5|-------------------------------------------------------------|
A-1-1-1-1-3-3-3-3|-8-8-8-7-8-8-8-7/8\7-10-10-10-10-10-10-10-10-8-8-8-8-7/8\7-77|
D----------------|-0-0-0-0-0-0-0-------8--8--8--8--8--8--8--8--7-7-7-7-------00|


Verse 2
e-------------------------|---------------------------------------------|
B-------------------------|---------------------------------------------|
G-------------------------|---------------------------------------------|
D-------------------------|---------------------------------------------|
A-10-10-10-10-10-8-8-7-7-7|-8-8-8-7-8-8-8-7/8\7-10-10-10-10-10-8-8-7-7-7|
D-8--8--8--8--8--7-7-7-7-7|-0-0-0-0-0-0-0-------8--8--8--8--8--7-7-7-7-7|


Pre-chorus
e--------------------------------|-----------------------------------------|
B--------------------------------|-----------------------------------------|
G--------------------------------|-----------------------------------------|
D--------------------------------|-----------------------------------------|
A-8-8-8-8-7-7-7-7-8-8-8-8-7-7-7-7|-10-10-10-10-7-7-7-7-8-8-8-8-7-7-7-7--8-8|
D--------------------------------|--------------------------------------0-0|


Chorus                            x3
e--------------------------------|
B--------------------------------|
G--------------------------------|
D-7-7-7-7-5-5-5-5-3-3-3-3--------|
A-5-5-5-5-3-3-3-3-1-1-1-1-5-5-5-5|
D-------------------------5-5-5-5|

e----------------|
B----------------|
G----------------|
D-3-3-3-3-5-5-5-5|
A-1-1-1-1-3-3-3-3|
D----------------|


SOLO
e------------------------------------------------------------------------------------|
B-------------------------------------13-13^-13--------------------------------------|
G----------10-12^-10----------10-12^-10------------------10-12^-10----------10-12^-10|
D-12-10-12----------12-10-12--------------------12-10-12-----------12-10-12----------|
A------------------------------------------------------------------------------------|
D------------------------------------------------------------------------------------|

e-13-13-12-12-------------13-13-12-12-------10-10|13-10-------13-10-------13-10-------13-10------|
B-------------13-13-10-10-------------13-13------|------13-10-------13-10-------13-10-------13-10|
G------------------------------------------------|-----------------------------------------------|
D------------------------------------------------|-----------------------------------------------|
A------------------------------------------------|-----------------------------------------------|
D------------------------------------------------|-----------------------------------------------|

e-15-13-------15-13-------15-13-------15-13-----------|
B-------15-13-------15-13-------15-13-------15-13-15^\|
G-----------------------------------------------------|
D-----------------------------------------------------|
A-----------------------------------------------------|
D-----------------------------------------------------| end of solo

(GUITAR 2 PLAYS PART OF THE CHORUS AFTER SOLO)


e------------------------------------------|
B------------------------------------------|
G------------------------------------------|
D-7-7-7-7-5-5-5-5-3-3-3-3---3-3-3-3-5-5-5-5|
A-5-5-5-5-3-3-3-3-1-1-1-1-5-1-1-1-1-3-3-3-3|
D-------------------------5----------------|

Chorus                            x3
e--------------------------------|
B--------------------------------|
G--------------------------------|
D-7-7-7-7-5-5-5-5-3-3-3-3--------|
A-5-5-5-5-3-3-3-3-1-1-1-1-5-5-5-5|
D-------------------------5-5-5-5|

e----------------|
B----------------|
G----------------|
D-3-3-3-3-5-5-5-5|
A-1-1-1-1-3-3-3-3|
D----------------|


e------------------------------------------|
B------------------------------------------|
G------------------------------------------|
D-7-7-7-7-5-5-5-5-3-3-3-3---3-3-3-3-5-5-5-5|
A-5-5-5-5-3-3-3-3-1-1-1-1-5-1-1-1-1-3-3-3-3|
D-------------------------5----------------|


OUTRO
e-----------------------------------------------|
B-----------------------------------------------|
G---------10-----------10---------12------------|
D-----------------------------------------------|
A-0-0-0-0-8----0-0-0-0-8--8-8-8-8-10-7-7-7-7/8\7|
D-0-0-0-0------0-0-0-0----8-8-8-8----7-7-7------|

e------------------------------------------------|
B------------------------------------------------|
G---------10-----------10---------12-------------|
D------------------------------------------------|
A-0-0-0-0-8----0-0-0-0-8--8-8-8-8-10-7-7-7-xx-3-3|
D-0-0-0-0------0-0-0-0----8-8-8-8----7-7-7-xx-3-3|





Добавлено: 14.04.2012
Другие материалы по этой песне:
  • Аккорды и текст

Страница создана 14.04.2012
http://primanota.ru/the-letter-black/my-disease-chords.htm
Привет, Гость.
Предлагаем пройти революционный курс по гитаре.
Подарок от PrimaNota.Ru, забирай!