PrimaNota.ru - самый крупный в мире бесплатный архив песенных текстов, аккордов, табулатур и нот


The Kooks - Naive Live - аккорды и текст, таба, видео

Регистрация Запомнить меня
Войти через:  Facebook Google Twitter Vk Yandex Mail.ru

The Kooks - Naive Live - аккорды и текст, таба, видео

Печатать
Просмотров: 893
Naive Live
The Kooks
Hallo,
hier ist die Naive-Version von dem Auftritt in Glastonbury 
http://de.youtube.com/watch?v=21C9PQOJ0bk



G#-moll: 4    E-Dur: 7    F#-Dur: x    H-Dur: 7    H-Dur+: x    Eb-moll: 6
         4           9            x           7            x             7
         6           9           11           8            9             8
         4           9            8           9            8             8
         6           7            9           9            9             6
         4           x            6           7            6             x



 Intro:

      E|--4-------4----4--6----x--x--------4--|
      H|--4--4----4----4--4----x--x--4-----4--|
      G|--4----4--4----4--4----x--x----4---4--|
      D|--6-------6----6--4----x--x--------6--|
      A|--6-------6----6--6----x--x--------6--|
      E|--4-------4----4--4----x--x--------4--|



      E|--x-x-x-x--4-4--x--4--x--4-4--x-x--7-7--x--7--x--7-7--x-x--|
      H|--x-x-x-x--4-4--x--4--x--4-4--x-x--9-9--x--9--x--9-9--x-x--|
      G|--x-x-x-x--6-6--x--6--x--6-6--x-x--9-9--x--9--x--9-9--x-x--|
      D|--x-x-x-x--4-4--x--4--x--4-4--x-x--9-9--x--9--x--9-9--x-x--|
      A|--x-x-x-x--6-6--x--6--x--6-6--x-x--7-7--x--7--x--7-7--x-x--|
      E|--x-x-x-x--4-4--x--4--x--4-4--x-x-------x-----x-------x-x--|

                                                                        

      E|--------x-----x--------x--x--7-7--x-----x-------x-x--|
      H|--------x-----x--------x--x--7-7--x-----x-------x-x--|
      G|-11-11--x-11--x-11-11--x--x--8-8--x--9--x--9-9--x-x--|
      D|--8--8--x--8--x--8--8--x--x--9-9--x--8--x--8-8--x-x--|
      A|--9--9--x--9--x--9--9--x--x--9-9--x--9--x--9-9--x-x--|
      E|--6--6--x--6--x--6--6--x--x--7-7--x--6--x--6-6--x-x--|



Verse1:
       Ab                      E
       I'm not saying its your fault 
                                    F#
       Although you could have done more 
                 B    B+ 
       Oh you're so naive yet so 
       Ab                E
       How could this be done 
                         F#
       By such a smiling sweetheart
           B                  B+  
       Ohh and your sweet and pretty face 
       Ab              E
       In such an ugly world 
                            F#
       Something that is so beautiful
                B           B+    
       Ohh that everytime I look inside 



Chorus:
       E           B              Eb       
       I know, she knows that i'm not fond of asking 
       E                     B                     Eb
       True or false, it may be, well, she's still out to get me 
       E               Ab             F#
       And I know, she knows that i'm not fond of asking 
       E                     B               Eb
       True or false, it may be, she's still out to get me 



Bridge: E



Verse2:
     
       I may say, it's your fault 
       Because I know you could have done more 
       Oh you're so naive yet so 
       How could that be done 
       By such a smiling sweetheart 
       Ohh and that sweet and pretty face 
       In such an ugly thing 
       As you are such a kind girl
       That every time I look inside 



Chorus:
       E           B              Eb       
       I know, she knows that i'm not fond of asking 
       E                     B                     Eb
       True or false, it may be, well, she's still out to get me 
       E               Ab             F#
       And I know, she knows that i'm not fond of asking 
       E                     B               Eb
       True or false, it may be, she's still out to get me 



Bridge:

       E|-------------------------------------------------|       
       H|-------------------------------------------------|
       G|--4--4-/6--6--6-/8--8-/-9--9--9-/16--16--16--16--|
       D|--6--6-/8--8--8-/9--9-/11-11-11-/16--16--16--16--|
       A|-------------------------------------------------|
       E|-------------------------------------------------|



       E|-------------------------------------------------|
       H|-------------------------------------------------|
       G|--4--4-/6--6--6-/8--8-/-9--9--9-/11--11--11--11--|
       D|--6--6-/8--8--8-/9--9-/11-11-11-/11--11--11--11--|
       A|-------------------------------------------------|
       E|-------------------------------------------------|



Verse3:
       I'm not saying it was your fault
       Although you should have done more
       You're so naive yet so 
       How could that be done
       Your such a good girl
       That every time you're on his side 



Chorus:
       E           B              Eb       
       I know, she knows that i'm not fond of asking 
       E                     B                     Eb
       True or false, it may be, well, she's still out to get me 
       E               Ab             F#
       And I know, she knows that i'm not fond of asking 
       E                     B               Eb
       True or false, it may be, she's still out to get me 



 Outro:
       E       Eb            Ab         B
                             Just don't let me down 
       E       Eb            Ab         B
                             Just don't let me down 
       E       Eb            Ab         B 
       Hold on to your kite, just don't let me down 
       E       Eb            Ab         B
                             Just don't let me down
       E       Eb            Ab         B 
       Hold on to your kite, just don't let me down
       E       Eb            Ab         B
       Hold on to your kite, just don't let me down 
       E       Eb            Ab         B
                             Just don't let me down 
       E       Eb            Ab         
                             Just don't let me down 
Добавлено: 17.03.2012
Другие материалы по этой песне:

Страница создана 17.03.2012
http://primanota.ru/the-kooks/naive-live-chords.htm
Привет, Гость.
Предлагаем пройти революционный курс по гитаре.
Подарок от PrimaNota.Ru, забирай!