PrimaNota.ru - самый крупный в мире бесплатный архив песенных текстов, аккордов, табулатур и нот


The Growlers - Mama Said - таба, видео

Регистрация Запомнить меня
Войти через:  Facebook Google Twitter Vk Yandex Mail.ru

The Growlers - Mama Said - таба, видео

Печатать
Просмотров: 61
Новый альбом группы 'Черный Кузнец' по культовому сериалу 'Сверхъестественное'!
https://youtu.be/3ubthe8RRfA


[Solo]

E|----------2h4--4-----------------------------------|
A|------4-4----2--2-4-------------4-4----------------|
D|6-4-6/------------------4-4-1-1-----1-4-4--1-4-1\--|
G|--------------------1-1----------------------------|
B|---------------------------------------------------|
E|---------------------------------------------------|

e|-----------------------------------------------------------------|
B|-----------------------9-6--9-9-9--------------------------------|
G|--6--6-6-6--9-6--6-6-6------------6-9-6----------------------9b~-|
D|----------------------------------------9--9-9-9--9-9-9--8-6-----|
A|-----------------------------------------------------------------|
E|-----------------------------------------------------------------|



************************************

| h  Hammer-on
| /  Slide up
| \  Slide down
| b  Bend
| ~  Let it ring 

************************************
Добавлено: 23.02.2018
Другие материалы по этой песне:
  • Аккорды и текст

Страница создана 23.02.2018
http://primanota.ru/the-growlers/mama-said-chords.htm
Привет, Гость.
Предлагаем пройти революционный курс по гитаре.
Подарок от PrimaNota.Ru, забирай!