PrimaNota.ru - самый крупный в мире бесплатный архив песенных текстов, аккордов, табулатур и нот


The Growlers - Burden Of The Captain - таба, видео

Регистрация Запомнить меня
Войти через:  Facebook Google Twitter Vk Yandex Mail.ru

The Growlers - Burden Of The Captain - таба, видео

Печатать
Просмотров: 40
-----------------------------------------------------------------------------------------
                           Burden Of The Captian - The Growlers
-----------------------------------------------------------------------------------------
Tabbed by: adslam3
Tuning: Standard

Strumming is kinda tricky to show here, but you'll be able to get it.

VERSES
There's two types of riffs being played.
The song starts with Riff 1, then 2, then 1, and then the C to B pattern I have written
below those riffs. 

HOWEVER the rest of the song is 2,1,and 2 then the C to B pattern.

RIFF 1                        RIFF 2
e|-7-7-7-7-7---7-7------------|-7-7-7-10p7-7-7------------|
B|-8-8-8-8-8\7/8-8-10/12-10\8-|-8-8-8-8--8-8-8-10/12-10\8-|
G|-9-9-9-9-9\8/9-9------------|-9-9-9-9--9-9-9------------|
D|----------------------------|---------------------------|
A|----------------------------|---------------------------|
E|----------------------------|---------------------------|

   C         B
e|-8-8-8-8-8-7-7-7-7-7-7-|
B|-8-8-8-8-8-7-7-7-7-7-7-|
G|-9-9-9-9-9-8-8-8-8-8-8-|
D|-----------------------|
A|-----------------------|
E|-----------------------|

CHORUS - strumming isn't perfect but just listen along.
   Am        Bm        G           Bm      Am
e|-5-5-5-5-5-7-7-7-7p5-3-3-5p3-3-5/7-7-7-7p5-5-|
B|-5-5-5-5-5-5-5-5-5-5-3-3-3-3-3-3/5-5-5-5-5-5-|
G|-5-5-5-5-5-5-5-5-5-5-4-4-4-4-4-4/5-5-5-5-5-5-|
D|---------------------------------------------|
A|---------------------------------------------|
E|---------------------------------------------|


LEAD INTO SOLO/BRIDGE
   C         B           C
e|-8-8-8-8-8-7-7-7-7-7-7-8-8-8-8-8-8-8-8-8-8-8-|
B|-8-8-8-8-8-7-7-7-7-7-7-8-8-8-8-8-8-8-8-8-8-8-|
G|-9-9-9-9-9-8-8-8-8-8-8-9-9-9-9-9-9-9-9-9-9-9-|
D|---------------------------------------------|
A|---------------------------------------------|
E|---------------------------------------------|

SOLO/BRIDGE 
e|-------------------------------------------|
B|-8-7------------8-10/12-12-10--12-12-10-12-|
G|-----9-8-9-8-9-----------------------------|
D|-------------------------------------------|
A|-------------------------------------------|
E|-------------------------------------------|

e|-----------------------------------------------|
B|-8-7------------8-10/12-12-10--12-12-10-12-12~-|
G|-----9-8-9-8-9---------------------------------|
D|-----------------------------------------------|
A|-----------------------------------------------|
E|-----------------------------------------------|

e|----12-10----------------------------------|
B|-12-------12--10-10-8-8-10-8--8-10-10/12~--|
G|-------------------------------------------|
D|-------------------------------------------|
A|-------------------------------------------|
E|-------------------------------------------|

e|----12-10----------------------------------|
B|-12-------12--10-10-8-8-10-8--8-7-7--------|
G|-------------------------------------------|
D|-------------------------------------------|
A|-------------------------------------------|
E|-------------------------------------------|


e|-------------------------------------------|
B|-8-7------------8-10/12-12-10--12-12-10-12-|
G|-----9-8-9-8-9-----------------------------|
D|-------------------------------------------|
A|-------------------------------------------|
E|-------------------------------------------|

e|-----------------------------------------------|
B|-8-7------------8-10/12-12-10-10-8-8-7-7-------|
G|-----9-8-9-8-9---------------------------------|
D|-----------------------------------------------|
A|-----------------------------------------------|
E|-----------------------------------------------|
                       
                       | TREMELO PICK
e|---------------------|---------------------|
B|-8-8-8-8-8-7-7-7-7-7-|-12---10---8---7-----|
G|-9-9-9-9-9-8-8-8-8-8-|---------------------|
D|---------------------|---------------------|
A|---------------------|---------------------|
E|---------------------|---------------------|

That should be about it. Enjoy los growlers
Добавлено: 02.06.2016
Другие материалы по этой песне:
  • Аккорды и текст

Страница создана 02.06.2016
http://primanota.ru/the-growlers/burden-of-captain-chords.htm
Привет, Гость.
Предлагаем пройти революционный курс по гитаре.
Подарок от PrimaNota.Ru, забирай!