PrimaNota.ru - самый крупный в мире бесплатный архив песенных текстов, аккордов, табулатур и нот


The Gaslight Anthem - The Baskseat Lead Guitar - таба, видео

Регистрация Запомнить меня
Войти через:  Facebook Google Twitter Vk Yandex Mail.ru

The Gaslight Anthem - The Baskseat Lead Guitar - таба, видео

Печатать
Просмотров: 87
Уроки эстрадного вокала в Санкт-Петербурге
This is how I play the lead guitar in The Backseat.

It's not perfect by any means but I think it works if you play along with the song. Tune 
the guitar down a full step.

(h) = Harmonic

INTRO:

e-------------------------------------------------------------------------------------|
B-------------------------------------------------------------------------------------|
G-------------------------------------------------------------------------------------|
D-11-11-11-11-11-11-13-13-14-14-14-14-14-14-13-13-14-14-16-16-16-16-16-16-14-14-14-14-|
A-------------------------------------------------------------------------------------|
E-------------------------------------------------------------------------------------|

e-----------------------------------------------------------------------------------|
B-----------------------------------------------------------------------------------|
G-----------------------------------------------------------------------------------|
D-13-13-14-13-11-11-11-11-11-11-13-9-9-9-9-9-9-11-11-13-13-11--9-11--13--14--13-14--|
A-----------------------------------------------------------------------------------|
E-----------------------------------------------------------------------------------|


VERSE 1

e-----------------------------------------------------------------------------------|
B-----------------------------------------------------------------------------------|
G-----------------------------------------------------------------------------------|
D-14-14-14-14-14-14-14-14-13-13-13-13-11-11-13-13-----------------(x10)-------------|
A-----------------------------------------------------------------------------------|
E-----------------------------------------------------------------------------------|


CHORUS 1

e---12(h)--------------12(h)------------------------12(h)---------------------------|
B--------12(h)-------------12(h)----------------12(h)-------------------------------|
G-----------------------------------------------------------------------------------|
D-----------------------------------------------------------------------------------|
A-----------------------------------------------------------------------------------|
E-----------------------------------------------------------------------------------|

e-------------------------------------------------------------------------------------|
B-------------------------------------------------------------------------------------|
G-------------------------------------------------------------------------------------|
D-11-11-11-11-11-11-13-13-14-14-14-14-14-14-13-13-14-14-16-16-16-16-16-16-14-14-14-14-|
A-------------------------------------------------------------------------------------|
E-------------------------------------------------------------------------------------|

e-----------------------------------------------------------------------------------|
B-----------------------------------------------------------------------------------|
G-----------------------------------------------------------------------------------|
D-13-13-14-13-11-11-11-11-11-11-13-9-9-9-9-9-9-11-11-13-13-11--9-11--13--14--13-14--|
A-----------------------------------------------------------------------------------|
E-----------------------------------------------------------------------------------|


VERSE 2

e-----------------------------------------------------------------------------------|
B-----------------------------------------------------------------------------------|
G-----------------------------------------------------------------------------------|
D-14-14-14-14-14-14-14-14-13-13-13-13-11-11-13-13-----------------(x10)-------------|
A-----------------------------------------------------------------------------------|
E-----------------------------------------------------------------------------------|


CHORUS 2

e--x-x-x-x-x-x-x-x-x-x-x-x-x-x-x-x-x-x-x-x-x-x-x-x----------------------------------|
B--12-12-12-12-12-12-12-12-12-12-12-12-12-10-10-10----------------------------------|
G--x-x-x-x-x-x-x-x-x-x-x-x-x-x-x-x-x-x-x-x-x-x-x-x----------------------------------|
D--x-x-x-x-x-x-x-x-x-x-x-x-x-x-x-x-x-x-x-x-x-x-x-x----------------------------------|
A--x-x-x-x-x-x-x-x-x-x-x-x-x-x-x-x-x-x-x-x-x-x-x-x----------------------------------|
E--x-x-x-x-x-x-x-x-x-x-x-x-x-x-x-x-x-x-x-x-x-x-x-x------------------(x4)------------|

e-----------------------------------------------------------------------------------|
B--17-17-17-17-17-17-17-17-16-16-16-16-14-14-16-16-----------------(x4)-------------|
G-----------------------------------------------------------------------------------|
D-----------------------------------------------------------------------------------|
A-----------------------------------------------------------------------------------|
E-----------------------------------------------------------------------------------|


BRIDGE

e-----------------------------------------------------------------------------------|
B-----------------------------------------------------------------------------------|
G-----------------------------------------------------------------------------------|
D-13-13-13-13-13-13-13-13-14-14-14-14-14-14-14-14-16-16-16-16-16-16-16-16-16-16-----|
A-----------------------------------------------------------------------------------|
E-----------------------------------------------------------------------------------|

e-----------------------------------------------------------------------------------|
B-----------------------------------------------------------------------------------|
G-----------------------------------------------------------------------------------|
D-16-16-16-16-16-16-------------------------------------------------(x2)------------|
A-----------------------------------------------------------------------------------|
E-----------------------------------------------------------------------------------|

e---12(h)--------------12(h)------------------------12(h)---------------------------|
B--------12(h)-------------12(h)----------------12(h)-------------------------------|
G-----------------------------------------------------------------------------------|
D-----------------------------------------------------------------------------------|
A-----------------------------------------------------------------------------------|
E-----------------------------------------------------------------------------------|

e-----------------------------------------------------------------------------------|
B-----------------------------------------------------------------------------------|
G-----------------------------------------------------------------------------------|
D-(14-14-14-14-14-14-14-14-14-14-14-14-14-13-13-13)-----------------(x12)-----------|
A-----------------------------------------------------------------------------------|
E-----------------(palm muted)------------------------------------------------------|


OUTRO/SOLO:

e-----------------------------------------------------------------------------------|
B--12-12-12-12-12-12-12-12-10-10-10-10-9-9-10-10-----------------(x4)---------------|
G-----------------------------------------------------------------------------------|
D-----------------------------------------------------------------------------------|
A-----------------------------------------------------------------------------------|
E-----------------------------------------------------------------------------------|

e------------------------------------------------------------------------------------|
B--17-17-17-17-17-17-17-17-16-16-16-16-14-14-16-16-------------(x4) (end back on 17--|
G------------------------------------------------------------------------------------|
D------------------------------------------------------------------------------------|
A------------------------------------------------------------------------------------|
E------------------------------------------------------------------------------------|
Добавлено: 16.10.2013
Другие материалы по этой песне:
  • Аккорды и текст

Страница создана 16.10.2013
http://primanota.ru/the-gaslight-anthem/the-baskseat-lead-guitar-chords.htm
Привет, Гость.
Предлагаем пройти революционный курс по гитаре.
Подарок от PrimaNota.Ru, забирай!