PrimaNota.ru - самый крупный в мире бесплатный архив песенных текстов, аккордов, табулатур и нот


The Fall Of Troy - Cut Down All The Trees And Name The Streets After Them - таба, видео

Регистрация Запомнить меня
Войти через:  Facebook Google Twitter Vk Yandex Mail.ru

The Fall Of Troy - Cut Down All The Trees And Name The Streets After Them - таба, видео

Печатать
Просмотров: 95
I'm pretty sure that this is right, because it sounds as close as i could get it


e|------------------------------------|
b|--0-------0-------1-------0---------|
g|--0--0-0--0--000--0--0-0--0--0-0----|  x2
d|--2--2-2--2--222--2--2-2--2--2-2----|
a|------------------------------------|
D|------------------------------------|
pm.    . .     ...     . .     . .
                     Break yourself.....

e|-------------------------------------|
b|--0-------0-------0-------0-------------|
g|--2--2-2--2--222--4--2-2--2--2-2-----|  x2
d|--4--4-4--4--444--4--4-4--4--4-4-----|
a|-------------------------------------|
D|-------------------------------------|
       . .     ...     . .     . .

e|-------------------------------------|
b|--1-------1-------3-------1----------|
g|--2--2-2--2--222--2--2-2--2--2-2-----|  x2
d|--3--3-3--3--333--3--3-3--3--3-3-----|
a|-------------------------------------|
D|-------------------------------------|
       . .     ...     . .     . .

e|--------------7p0---7p0---10p0---10p0-----15-14----|
b|-----------------8-----8------12-----12------------|
g|---------------------------------------------------|  x2
d|---------------------------------------------------|
a|--2---2--------------------------------------------|
D|--2---2--------------------------------------------|
       

thats all i've got so far, but i really want to learn this song
and maybe this will give someone an idea

Добавлено: 22.07.2012
Другие материалы по этой песне:

Страница создана 19.04.2012
http://primanota.ru/the-fall-of-troy/cut-down-all-the-trees-and-name-the-streets-after-them-chords.htm
Привет, Гость.
Предлагаем пройти революционный курс по гитаре.
Подарок от PrimaNota.Ru, забирай!