PrimaNota.ru - самый крупный в мире бесплатный архив песенных текстов, аккордов, табулатур и нот


The Fall Of Troy - Ghostship Part 2 - таба, бас-таба, видео

Регистрация Запомнить меня
Войти через:  Facebook Google Twitter Vk Yandex Mail.ru

The Fall Of Troy - Ghostship Part 2 - таба, бас-таба, видео

Печатать
Просмотров: 115
Tabbed by Joe B.
Tuning = Standard
Band - The Fall of Troy
       Ghostship EP- Ghostship Part II

                             Updated July 28th, 2008 : Fixed some chords

  This song was hard to figure out because the guitar is very faint in some parts but i 
to figure out what i could hear.You get the Idea of when to play everthing, if you just 
to the song

                            LEGEND
                        ---------------
                         p - pull off
                         h - hammer on
                         \ - slide to or from
                       PM .- Palm Mute
                        tp - Tremelo Picking(Fast)
                         x - mute string(s)
                        nb - neck bend

e|-----------------------------------------------------|
B|-----------------------------------------------------|
G|-------4p0-0-5p0-0-4p0-0-5-------4p0-0-5p0-0-4p0-7---|
D|--5-7-----------------------5-7----------------------|
A|--x-x-----------------------x-x----------------------|
E|--3-5-----------------------3-5----------------------|


e|------------------------------------------------------|
B|------------------------------------------------------|
G|-------4p0-0-5p0-0-4p0-0-5-------4p0-0-5p0-0-4p0-5\17-|
D|--5-7-----------------------5-7-----------------------|
A|--x-x-----------------------x-x-----------------------|
E|--3-5-----------------------3-5-----------------------|


e|-----------------------------------------------------|
B|-----------------------------------------------------|
G|-------4p0-0-5p0-0-4p0-0-5-------4p0-0-5p0-0-4p0-7---|
D|--5-7-----------------------5-7----------------------|
A|--x-x-----------------------x-x----------------------|
E|--3-5-----------------------3-5----------------------|

e|----------------------------------------------------------|
B|--------------------------------------------------3\5p0---|
G|-------4p0-0-5p0-0-4p0-0-5-------4p0-0-5p0-0-4p0----------|
D|--5-7-----------------------5-7---------------------------|
A|--x-x-----------------------x-x---------------------------|
E|--3-5-----------------------3-5---------------------------|


e|-----------------------------------------------------------|
B|---------------------------------------------5h6p5p0-0-----|
G|-------4p0-0-5p0-0-4p0-0-5-------4p0-0-5p0-0-----------5h7-|
D|--5-3-----------------------5-3----------------------------|
A|--x-x-----------------------x-x----------------------------|
E|--3-1-----------------------3-1----------------------------|


e|----------------------------------------------|
B|----------------------------------------------|
G|----------9----------7---------10----------9--|
D|----------10---------9---------12----------10-|
A|--0-0000-----0-0000-----0-0000-----0-0000-----|
E|----------------------------------------------|
PM . ....     . ....     . ....     . ....


e|------------------------------------------------|
B|------------------------------------------------|
G|----------9----------7---------10----------9nb--|
D|----------10---------9---------12---------10nb--|
A|--0-0000-----0-0000-----0-0000-----0-0000-------|
E|------------------------------------------------|
PM . ....     . ....     . ....     . ....


e|----------------------------------------------|
B|----------------------------------------------|
G|----------9----------7---------10----------9--|
D|---------10----------9---------12---------10--|
A|--0-0000-----0-0000-----0-0000-----0-0000-----|
E|----------------------------------------------|


e|-----------------------------------------------|
B|-----------------------------------------------|
G|----------9----------7---------10----------12--|
D|---------10----------9---------12----------10--|
A|--0-0000-----0-0000-----0-0000-----0-0000------|
E|-----------------------------------------------|

e|--------------0h10-0-15p12p0-0-12p0-|
B|------------------------------------|
G|----------9~~-----------------------|
D|---------10~~-----------------------|
A|--0-0000----------------------------|
E|------------------------------------|
PM . ....


e|------------7\10-12p10p0-0-15p10p0-0-15-|
B|----------------------------------------|
G|---------9~~----------------------------|
D|--------10~~----------------------------|
A|----------------------------------------|
E|--8-8888--------------------------------|
PM . ....

e|-----------15p12p0-0-17p12p0-0-15p0--|
B|-------------------------------------|
G|---------9---------------------------|
D|--------10---------------------------|
A|--8-8888-----------------------------|
E|-------------------------------------|
PM . ....

e|------------------------|
B|------------------------|
G|--7-7-7-7-7--7-7-7-7-7--|
D|--x-x-x-x-x--x-x-x-x-x--|
A|--5-5-5-5-5--5-5-5-5-5--|
E|------------------------|

this part is really hard to hear
so if anyone can help me out that would be good
e|------------------------------------|
B|-----------10-----------------9-----|
G|--------------11-------10------10---|
D|-----11----------11--------------11-|
A|---9----9------------8----8---------|
E|------------------------------------|

e|-------------------\-21tp--| the 21 is just simulating a whammy pedal
B|---------------------------| so if you've got one just put it on like
G|---------------------------| an octave up and slowly push down on the 11
D|--7tp---9tp---11tp---------|
A|---------------------------|
E|---------------------------|

e|--------------------------------------------------------------|
B|--------------------------------------------------------------|
G|--11-11-11-x--11-11-11-x--11-11-11-x--10-10-10-x--10-10-10-x--|
D|--x--x--x--x--x--x--x--x--x--x--x--x--x--x--x--x--x--x--x--x--|
A|--9--9--9--x--9--9--9--x--9--9--9--x--8--8--8--x--8--8--8--x--|
E|--------------------------------------------------------------|

e|------------------------------|
B|--7-\-12p0-12p0--14-14-12p0---|
G|------------------------------|
D|------------------------------|
A|------------------------------|
E|------------------------------|

e|-----------------|   |-----------|
B|-----------------|   |-----------|
G|--10-\11--11-11--|   |--14-14-14-|
D|--x----x---x--x--|x2 |---x--x--x-|
A|--8--\-9---9--9--|   |--12-12-12-|
E|-----------------|   |-----------|

                Outro
e|-----------------------------------------|
B|-----------------------------12h15-15p12-|
G|-----------------12p9----9---------------|
D|--8~~~10~~~-----------12-----------------|
A|-----------10~~~-------------------------|
E|-----------------------------------------|
Добавлено: 14.05.2012
Другие материалы по этой песне:

Страница создана 26.02.2012
http://primanota.ru/the-fall-of-troy/ghostship-part-2-chords.htm
Привет, Гость.
Предлагаем пройти революционный курс по гитаре.
Подарок от PrimaNota.Ru, забирай!