PrimaNota.ru - самый крупный в мире бесплатный архив песенных текстов, аккордов, табулатур и нот


The Dream - Falsetto - таба, видео

Регистрация Запомнить меня
Войти через:  Facebook Google Twitter Vk Yandex Mail.ru

The Dream - Falsetto - таба, видео

Печатать
Просмотров: 86
-------------------------------------------------------------------------------
                             Falsetto - The Dream
-------------------------------------------------------------------------------
Alrite..here is a tab that alot of people look for, but can never find. its taken
 me many weeks to tab this solo by ear, and im STILL workin on it. im jst gonna post up
i kno
 right now..and i will edit it as soon as i figure out the rest. so take
 it easy on me everyone...since i am still new at playing the guitar. lol. hope this
any
questions or corrections, plz..comment or email me to let me kno. thank u. :)

Tabbed by: Santiago Verduzco
Email: Sverduzco27@yahoo.com

Tuning: Standard

e|--------------------------------------------------------------------------|
B|--------------------------------------------------------------------------|
G|-5-7b9-7p5h7~-4b5---------------------------------------------------------|
D|-----------------5-----------------------------------5-7~--------10-------|
A|------------------5-4-2h3p2----------3-5/7-7-5-3-5/7-----7/12-12----------|
E|---------------------------3-5\--5-5--------------------------------------|

e|--------------------------------------------------------------------------|
B|---------------------13-15b18-15b18-15-13-15----15------------------------|
G|---------------12-14--------------------------12--11-12-9~-7b9--7-5-7~----|
D|------10-12/14------------------------------------------------------------|
A|-7/12---------------------------------------------------------------------|
E|--------------------------------------------------------------------------|

e|---------------------------------------------17-17b20-17p15h17--17b20-----|
B|---------------------------12-15/17/20-17-20------------------------------|
G|-------------------12-12-14-----------------------------------------------|
D|--------10h12-12/14-------------------------------------------------------|
A|-7/12-12------------------------------------------------------------------|
E|--------------------------------------------------------------------------|

e|-17b20-17p15h17-17b20-15----------------------------------------------------|
B|--------------------------17-14b-12-12b--13--13--13\------------------------|
G|-------------------------------------------14----14\------------------------|
D|----------------------------------------------------------------------------|
A|----------------------------------------------------------------------------|
E|----------------------------------------------------------------------------|

well....there u hv it...its not 100% accurate..and it needs ALOT of work...but i jst
i would put it out here, so other ppl can use it and make it better. well, enjoy. :)


| /  slide up
| \  slide down
| h  hammer-on
| p  pull-off
| ~  vibrato
| +  harmonic
| x  Mute note
| b  bend to
===============================================================================
Добавлено: 28.05.2012
Вам также может быть интересно:
Другие материалы по этой песне:
  • Аккорды и текст

Страница создана 28.05.2012
http://primanota.ru/the-dream/falsetto-chords.htm
Привет, Гость.
Предлагаем пройти революционный курс по гитаре.
Подарок от PrimaNota.Ru, забирай!