PrimaNota.ru - самый крупный в мире бесплатный архив песенных текстов, аккордов, табулатур и нот


The Aristocrats - Blues Fuckers - таба, видео

Регистрация Запомнить меня
Войти через:  Facebook Google Twitter Vk Yandex Mail.ru

The Aristocrats - Blues Fuckers - таба, видео

Печатать
Просмотров: 28
Уроки эстрадного вокала в Санкт-Петербурге
[Intro]
e|--------------------------| 
B|--------------------------| 
G|--------------------------|
D|------------------3-4-5---| 
A|-0--0-3-4-5-0-3-0-------0-| 
D|--------------------------| 

[Section 1]
e|------------------------| (x6)
B|------------------------| 
G|------------------------|
D|------------------3-4-5-| 
A|-0--0-3-4-5-0-3-0-------| 
D|------------------------| 

e|------------------------| (x5)
B|------------------------| 
G|------------------------|
D|------------------------| 
A|------------------3-4-5-| 
D|-0--0-3-4-5-0-3-0-------| 

e|------------------------| (x5)
B|------------------------| 
G|------------------------|
D|------------------3-4-5-| 
A|-0--0-3-4-5-0-3-0-------| 
D|------------------------| 

e|--------------------------|---------------------------|--------------------------|
B|--------------------------|---------------------------|--------------------------|
G|--------------------------|---------------------------|--------------------------|
D|--------------------------|---------------------------|------------------3-4-5---|
A|------------------3-2-1---|---------------------------|-0--0-3-4-5-0-3-0-------0-|
D|-2--2-4-2-5-4-3-2---------|--0--0-2-0-4-5-6-7-6-5-4---|--------------------------|

[Section 2]
e|------------------------| (x5)
B|------------------------| 
G|------------------------|
D|------------------3-4-5-| 
A|-0--0-3-4-5-0-3-0-------| 
D|------------------------| 

e|------------------------| (x5)
B|------------------------| 
G|------------------------|
D|------------------------| 
A|------------------3-4-5-| 
D|-0--0-3-4-5-0-3-0-------| 

e|------------------------| (x5)
B|------------------------| 
G|------------------------|
D|------------------3-4-5-| 
A|-0--0-3-4-5-0-3-0-------| 
D|------------------------| 

e|--------------------------|---------------------------|--------------------------|
B|--------------------------|---------------------------|--------------------------|
G|--------------------------|---------------------------|--------------------------|
D|--------------------------|---------------------------|------------------3-4-5---|
A|------------------3-2-1---|---------------------------|-0--0-3-4-5-0-3-0-------0-|
D|-2--2-4-2-5-4-3-2---------|--0--0-2-0-4-5-6-7-6-5-4---|--------------------------|

[Section 3]
e|-5--5---6--6--|--3--4--5--6--6--|--3--4--5--6--6--|--3--4--5--6--7--7--|--3--4--5--6--7--7--|
B|-5--5---6--6--|--3--4--5--6--6--|--3--4--5--6--6--|--3--4--5--6--7--7--|--3--4--5--6--7--7--|
G|-5--5---6--6--|--3--4--5--6--6--|--3--4--5--6--6--|--3--4--5--6--7--7--|--3--4--5--6--7--7--|
D|-7--7---8--8--|--5--6--7--8--8--|--5--6--7--8--8--|--5--6--7--8--9--9--|--5--6--7--8--9--9--|
A|--------------|-----------------|-----------------|--------------------|--------------------|
D|--------------|-----------------|-----------------|--------------------|--------------------|

e|-3--4--5--6--7--7--|-3--4--5--6--7--8--8--|-3--4--5--6--7--8--8--|-3--4--5--6--7--8--9--|-9-------|
B|-3--4--5--6--7--7--|-3--4--5--6--7--8--8--|-3--4--5--6--7--8--8--|-3--4--5--6--7--8--9--|------9--|
G|-3--4--5--6--7--7--|-3--4--5--6--7--8--8--|-3--4--5--6--7--8--8--|-3--4--5--6--7--8--9--|---------|
D|-5--6--7--8--9--9--|-5--6--7--8--9--10-10-|-5--6--7--8--9--10-10-|-5--6--7--8--9--10-11-|---11----|
A|-------------------|----------------------|----------------------|----------------------|---------|
D|-------------------|----------------------|----------------------|----------------------|---------|

[Section 4]
e|-------------------------|----------------------| (x12)
B|-------------------------|----------------------|
G|-------------------------|----------------------|
D|------------------3-4-5--|------------------5~--|
A|-0--0-3-4-5-0-3-0--------|-0--0-3-4-5-0-3-0-----| 
D|-------------------------|----------------------|

e|-------------------------|----------------------| (x4)
B|-------------------------|----------------------|
G|-------------------------|----------------------|
D|-------------------------|----------------------|
A|------------------3-4-5--|------------------3~--|
D|-0--0-3-4-5-0-3-0--------|-0--0-3-4-5-0-3-0-----|

e|------------------------|  (x8)
B|------------------------| 
G|------------------------|
D|------------------------| 
A|------------------3-4-5-| 
D|-0--0-3-4-5-0-3-0-------| 

[Section 5]
e|---------4---| (x8)
B|---------6---|
G|-5--5----5---|
D|-5--5----6---|
A|-3--3----4---|
D|-------------|

e|-3--4----5--6----7--8----3--4--5----6--7----7--8--9--10-------------10-----------------10/12--|
B|-3--4----5--6----7--8----3--4--5----6--7----7--8--9--10-------10-------10---------------------|
G|-3--4----5--6----7--8----3--4--5----6--7----7--8--9--10----------10-------10------9-----------|
D|-5--6----7--8----9--10---5--6--7----8--9----9--10-11-12----10-----------------------10--------|
A|--------------------------------------------------------------------------------9-------------|
D|----------------------------------------------------------------------------------------------|

[Section 6]
e|--------------------------| 
B|--------------------------| 
G|--------------------------|
D|------------------3-4-5---| 
A|-0--0-3-4-5-0-3-0-------0-| 
D|--------------------------| 

e|------------------------|  (x6)
B|------------------------| 
G|------------------------|
D|------------------3-4-5-| 
A|-0--0-3-4-5-0-3-0-------| 
D|------------------------| 

e|------------------------|  (x5)
B|------------------------| 
G|------------------------|
D|------------------------| 
A|------------------3-4-5-| 
D|-0--0-3-4-5-0-3-0-------| 

e|------------------------|  (x5)
B|------------------------| 
G|------------------------|
D|------------------3-4-5-| 
A|-0--0-3-4-5-0-3-0-------| 
D|------------------------| 

e|--------------------------|---------------------------|
B|--------------------------|---------------------------|
G|--------------------------|---------------------------|
D|--------------------------|---------------------------|
A|------------------3-2-1---|---------------------------|
D|-2--2-4-2-5-4-3-2---------|--0--0-2-0-4-5-6-7-6-5-4---|

e|------------------------| (x6)
B|------------------------| 
G|------------------------|
D|------------------3-4-5-| 
A|-0--0-3-4-5-0-3-0-------| 
D|------------------------| 

e|--------------------------|---------------------------|
B|--------------------------|---------------------------|
G|--------------------------|---------------------------|
D|--------------------------|---------------------------|
A|------------------3-2-1---|---------------------------|
D|-2--2-4-2-5-4-3-2---------|--0--0-2-0-4-5-6-7-6-5-4---|

e|------------------------| (x5)
B|------------------------| 
G|------------------------|
D|------------------3-4-5-| 
A|-0--0-3-4-5-0-3-0-------| 
D|------------------------| 

e|--------------------------|---------------------------| (x2)
B|--------------------------|---------------------------|
G|--------------------------|---------------------------|
D|--------------------------|---------------------------|
A|------------------3-2-1---|---------------------------|
D|-2--2-4-2-5-4-3-2---------|--0--0-2-0-4-5-6-7-6-5-4---|

e|---------------------------|
B|---------------------------|
G|---------------------------|
D|---------------------------|
A|------------------3-2-1----|
D|-2--2-4-2-5-4-3-2-------0--|

[Outro]
e|---------------------------------------------------------------------------|
B|-------2-2--3-3--4-4--5----------------------------------------------------|
G|-2--2------------------------7-7--5-5--4-4-4-----------------------9\------|
D|-------5-5--4-4--3-3--2--------------------------------------------9\------|
A|---------------------------------------------0--0---4-4--5-5--6-6--7\------|
D|---------------------------------------------------------------------------|



************************************

| ~  Vibrato
| /  Slide up
| \  Slide down

************************************
Добавлено: 24.11.2017
Вам также может быть интересно:
Другие материалы по этой песне:
  • Аккорды и текст

Страница создана 24.11.2017
http://primanota.ru/the-aristocrats/blues-fuckers-chords.htm
Привет, Гость.
Предлагаем пройти революционный курс по гитаре.
Подарок от PrimaNota.Ru, забирай!