PrimaNota.ru - самый крупный в мире бесплатный архив песенных текстов, аккордов, табулатур и нот


Tame Impala - Sestri Levante - таба, бас-таба, видео

Регистрация Запомнить меня
Войти через:  Facebook Google Twitter Vk Yandex Mail.ru

Tame Impala - Sestri Levante - таба, бас-таба, видео

Печатать
Просмотров: 115
-------------------------------------------------------------------------------
                             Sestri Levante - Tame Impala
-------------------------------------------------------------------------------
Tabbed by: Ferrell
E-mail:  Kalarba1@gmail.com

Tuning: Standard EADGBE

My first tab, sounds good, love this song, its pretty easy to play.

e|---------------------------------------------------------------------------|
B|---------------------------------------------------------------------------|
G|----------7--9-----------7--9-----14--12h14---12-10-9---7-5-2--2b--0-------|     
D|--7---10---------7---10----------------------------------------------------|
A|---------------------------------------------------------------------------|
E|---------------------------------------------------------------------------|

2nd stanza includes a bend/vibrato used every other stanza

e|---------------------------------------------------------------------------|
B|----------------10b~-------------------------------------------------------|
G|----------7--9--------------7--9-----14--12h14---12-10-9---7-5-2--2b--0----|        
D|--7---10------------7---10-------------------------------------------------|      
A|---------------------------------------------------------------------------|
E|---------------------------------------------------------------------------|


Repeat throughout the whole song


************************************

| /   slide up
| \   slide down
| h   hammer-on
| p   pull-off
| ~   vibrato
| +   harmonic
| x   Mute note
| b   Bend
| pb  Pre-bend
| br  Bend release
| pbr Pre-bend release
| brb Bend release bend

************************************
Добавлено: 06.06.2014
Другие материалы по этой песне:

Страница создана 04.05.2014
http://primanota.ru/tame-impala/sestri-levante-chords.htm
Привет, Гость.
Предлагаем пройти революционный курс по гитаре.
Подарок от PrimaNota.Ru, забирай!