PrimaNota.ru - самый крупный в мире бесплатный архив песенных текстов, аккордов, табулатур и нот


Tame Impala - Yes Im Changing - аккорды и текст, бас-таба, видео

Регистрация Запомнить меня
Войти через:  Facebook Google Twitter Vk Yandex Mail.ru

Tame Impala - Yes Im Changing - аккорды и текст, бас-таба, видео

Печатать
Просмотров: 318
Авторы музыки: Kevin Parker
Авторы текста: Kevin Parker
Yes Im Changing
Tame Impala
-------------------------------------------------------------------------------
                             YES I'M CHANGING - Tame Impala
-------------------------------------------------------------------------------
Tabbed by:majorseventh
E-mail:cwarner3000@gmail.com

There is no guitar on this song but it sounds great on guitar

Tuning:Standard EADGBe

Chords
C        x32010
Cadd9    x3203x
C7M      x3200x
Aminadd2 x02410
F        1332xx
G        32000x
Fm       13311x


Intro chords
e|--0-------------------0----------------------|
B|--1----3----0----1----1---------1------------|
G|--0----0----0----0----4----2----0------------|
D|--2----2----2----2----2----3----2------------|
A|--3----3----3----3----0----3----3------------|
E|---------------------------1-----------------|



alternatively you could play with capo on 5th fret making
the major seventh chord sound closer to the actual song
by hitting the higher b note on 7th fret of high e string

capo 5th fret
e|--x---------2----3----0----------------------|
B|--0----0----0----0----0----1----0------------|
G|--0----2----0----0----0----0----0------------|
D|--0----0---------0----4----2----0------------|
A|--2----x----x----2----2----3----2------------|
E|--3----3----3----3----0---------3------------|


Verse
C             Cadd9
I was raging, it was late
C7M                    C
In the world my demons cultivate
Aminadd2                             F                C
I felt the strangest emotion but it wasnt hate, for once


C                 Cadd9
Yes Im changing, yes I'm gone
C7M                   C
Yes Im older, yes I'm moving on
          Aminadd2                         F                C
And if you dont think it's a crime you can come along, with me


C               Cadd9
Life is moving, can't you see
C7M                        C
There's no future left for you and me
      Aminadd2                    F
I was holding and I was searching endlessly
    C                 G                       C
But baby, now theres nothing left that I can do so
Cadd9       C7M     C
So don't be blue
         Aminadd2       F                  C
There is another future waiting there for you


C                   Cadd9
I saw it different, I must admit
C7M                           C
I caught a glimpse, I'm going after it
         Aminadd2                       F              C
They say people never change, but thats bullshit, they do


C                 Cadd9
Yes Im changing, cant stop it now
C7M                         C
And even if I wanted I wouldnt know how
        Aminadd2            F                 C
Another version of myself I think I found, at last


C                  Cadd9
And I cant always hide away
C7M                     C
Curse indulgence and despise the fame
          Aminadd2                 F
Theres a world out there and its calling my name
         C              G
And its calling yours, girl its calling yours too



C   F       Fm
Its calling yours too, 
C   F       Fm
its calling yours too,
C   F       Fm 
its calling yours too
C   F       Fm
Its calling out for you



Outro (you can hear it most clearly at 3:14)
C F Fmin

Played like this

e|---------------------------------------------------------------------------|
B|--0h1-0h1-0h1-0h1---0---0---0---0------------------------------------------|
G|--0---0---0---0---2---2---1---1--------------------------------------------|
D|------------------3---3---3---3--------------------------------------------|
A|--3---3---3---3---3---3---3---3--------------------------------------------|
E|---------------------------------------------------------------------------|


C F       Fmin       C
Arise and walk, come through
F         Fm         C
Someone beyond that door
   F       Fm      C
is calling out for you
 F        Fm         C
Arise and walk, come through
    F       Fm      C
Its calling out for you
  F       Fm         C
Arise and walk, come through
F         Fm        C
Someone beyond that door
F          Fm      C 
is calling out for you






"The man who comes back through the Door in the Wall will never be quite the same as the man who went out.
He will be wiser but less sure, happier but less self-satisfied, 
humbler in acknowledging his ignorance yet better equipped to understand the relationship of words to things,
of systematic reasoning to the unfathomable mystery which it tries, forever vainly, to comprehend" 

Aldous Huxley - The Doors of Perception

************************************

| /   slide up
| \   slide down
| h   hammer-on
| p   pull-off
| ~   vibrato
| +   harmonic
| x   Mute note
| b   Bend
| pb  Pre-bend
| br  Bend release
| pbr Pre-bend release
| brb Bend release bend

************************************
Добавлено: 11.09.2015
Другие материалы по этой песне:

Страница создана 11.09.2015
http://primanota.ru/tame-impala/yes-im-changing-chords.htm
Привет, Гость.
Предлагаем пройти революционный курс по гитаре.
Подарок от PrimaNota.Ru, забирай!