PrimaNota.ru - самый крупный в мире бесплатный архив песенных текстов, аккордов, табулатур и нот


System Of A Down - Lonley Day - таба, видео

Регистрация Запомнить меня
Войти через:  Facebook Google Twitter Vk Yandex Mail.ru

System Of A Down - Lonley Day - таба, видео

Печатать
Просмотров: 418
Lonley Day
System of a Down
Hypnotized


OK so what i have here are tabs for lonely day vocals on guitar. Basically you can play this
instead of having a Singer. I saw this song played on piano were they played vocals part so i
decided to get the notes and change them to guitar tabs. This is pretty cool so hope you
enjoy it.

TUNING C#-D#-C#-F#-A#-B#

FYI really no reason to put them because you can just match with lyrics but

E - 1/8 NOTE
Q - 1/4 NOTE
H - 1/2 NOTE
a . NEXT TO A NOTE MEANS THAT NOTE IS DOTTED ADD HALF OF ITS VALUE
(EXAMPLE H. IS 3 BEATS)

Such a lonely day   And it's mine  The most loneliest day of my  liiiiiiife
 E   E  E E   H     E   E    H     E   E    E  E  E   E   E  E   H   E  E H.
-9---6--9-6---8-----6---6----------6---6----6--8--9---11--9--8---9---11-9-8-|
-----------------------------6----------------------------------------------|
----------------------------------------------------------------------------|
----------------------------------------------------------------------------|
----------------------------------------------------------------------------|
----------------------------------------------------------------------------|

Such a lonely day   Should be banned  It's a day that I  can't staaaaaand
 E   E  E E   H     E      E  H       E    E Q   E    Q  E E E H  E E E H
-9---6--9-6---8-----6------6----------6----6-11--9----11-8-9-8-6--9-8-6-3-|
------------------------------6-------------------------------------------|
--------------------------------------------------------------------------|
--------------------------------------------------------------------------|
--------------------------------------------------------------------------|
--------------------------------------------------------------------------|


The most loneliest day of my liiiiiife
  E  E    E  E  E   E   E  E  H  E  E H.
------------------------------------------|
o-6--6----6--8--9---10--9--8--6--10-9-8---|o
------------------------------------------|
------------------------------------------|
------------------------------------------|
o-----------------------------------------|o
------------------------------------------|

Such a lonely day  Shouldn't exist   It's a day that I'll never miiiiiiiiss
 E   E  E E   H     E  E.    E E H   E    E Q   E    Q    E E E E H E E E H
-9---6--9-6---8-----6--6-----6-6-----6----6-11--9----11---9-8-9-8-6-9-8-6-3-|
---------------------------------6------------------------------------------|
----------------------------------------------------------------------------|
----------------------------------------------------------------------------|
----------------------------------------------------------------------------|
----------------------------------------------------------------------------|

Such a lonely day   And it's mine  The most loneliest day of my  liiiiiiife
 E   E  E E   H     E   E    H     E   E    E  E  E   E   E  E   H   E  E H.
-9---6--9-6---8-----6---6----------6---6----6--8--9---11--9--8---9---11-9-8-|
-----------------------------6----------------------------------------------|
----------------------------------------------------------------------------|
----------------------------------------------------------------------------|
----------------------------------------------------------------------------|
----------------------------------------------------------------------------|

And if you go,  I wanna go with you   And if you die,  I wanna die with you
 E  E  E   H    E  E E  E  E	H     E   E  E   H     E  E E  E   E    H
----------------------------------------------------------------------------|
-6--6--6---4----4--4-4--6--4----2-----6---6--6---4-----4--4-4--6---7----6---|
----------------------------------------------------------------------------|
----------------------------------------------------------------------------|
----------------------------------------------------------------------------|
----------------------------------------------------------------------------|

Take your hand and walk away
 H.  Q.   Q.   Q   Q.   Q.H.
------------------------------|
-6---6----4----4---7----7-6---|
------------------------------|
------------------------------|
------------------------------|
------------------------------|



The most loneliest day of my liiiiiife
  E  E    E  E  E   E   E  E  H  E  E H.
------------------------------------------|
o-6--6----6--8--9---10--9--8--6--10-9-8---|o
------------------------------------------|
------------------------------------------|
------------------------------------------|
o-----------------------------------------|o

The most loneliest day of my liiiiiife
  E  E    E  E  E   E   E  E  H  E  E H.
--6--6----6--8--9---10--9--8--6--10-9-8--|
-----------------------------------------|
-----------------------------------------|
-----------------------------------------|
-----------------------------------------|
-----------------------------------------|

slide on STRINGS back and forth matching the humming

Such a lonely day   And it's mine  It's a day that I am glad I surviiiiived.
 E   E  E E   H     E   E    H     E    E Q   E    E Q   E   E E E H E E E H
-9---6--9-6---8-----6---6----------6----6-11--9----9-11--9---8-9-8-6-9-8-6-3-|
-----------------------------6-----------------------------------------------|
-----------------------------------------------------------------------------|
-----------------------------------------------------------------------------|
-----------------------------------------------------------------------------|
-----------------------------------------------------------------------------|


HOPE YOU ENJOY ANY QUESTIONS OR IMPROVEMENTS OR CORRECTIONS EMAIL ME
JORGEM1398@YAHOO.COM
Добавлено: 30.06.2013
Другие материалы по этой песне:
  • Аккорды и текст

Страница создана 30.06.2013
http://primanota.ru/system-of-a-down/lonley-day-chords.htm
Привет, Гость.
Предлагаем пройти революционный курс по гитаре.
Подарок от PrimaNota.Ru, забирай!