PrimaNota.ru - самый крупный в мире бесплатный архив песенных текстов, аккордов, табулатур и нот


System Of A Down - Mezmerize - таба, бас-таба, видео

Регистрация Запомнить меня
Войти через:  Facebook Google Twitter Vk Yandex Mail.ru

System Of A Down - Mezmerize - таба, бас-таба, видео

Печатать
Просмотров: 199
    ______________________
   /                     /  *All the following tabs are ear transscriped by Maitinin! Buy the official
  /  System of a Down   /   tab book if you want 102% accuracy. If you want to discuss SOAD's politics,
 /  Mezmerize          /   song meanings, ask for a tabulature explanation, give me some responce, give
/_____________________/   me corrections or just send me love letters, mail me at maitinin@gmail.com*

I don't want to write a 10 page long analysis of the entire Mezmerize album, as this is yet only a
guitar tab, but by reading the small notes in the beginning of every tab, you'll get a clear picture of
SOAD's non-musical points with this album. But there's something you've got to read anyways. It's an
analysis of the entire album made by Ian Neel under the Song Meanings topic on the unofficial website -
it's #4: http://systemofadownonline.com/sm/4/question.htm, Malakian is god, so enjoy!


**********************************************************************************************

    ____________________
   / System of a Down  /  I think this little song is about how senseless and unfair the
  / Soldier Side      /  American attitude and view on going into war is told by a fictional
 / Mezmerize         /  soldier standing in the middle of the battlefield with his
/___________________/  companions lying and dying around him - "People grow up to die!"

Guitar:   Clean
Rhythm:   4 / 4
Tempo:    66 bpm
Tuning:   Db Ab Db Gb Bb Eb
          C# G# C# F# A# D#



INTRO:
  E         D#         F#m           C#m       D#                G#
                               |-3-|
  E E S S E E E E E    E S S a E E E E E E E  E E E E E E E E   E E E E S S a E E E
|--------------------|-----------------------|-----------------|---------------------|
|--------------------|-----------------------|-----------------|-----2---2-3-3/5-5---|
|-2---2-3-2-1---1----|---3-5-5s7s5-3-2---2---|-1---1-------1---|---------------------|
|-0---------0--------|-----------------------|-0-------2-------|---2---2-------------|
|-0---------2--------|-----------------------|-2---------------|-0-------------------|
|-3-3-------2-2---2/-|-5---------------0---0-|-2-2---2---2---2-|-------------------0-|



VERSE:

  Q E E Q E E   Q E E  Q E E   Q E E E E E E   E E E E S S a E E E
|-------------|--------------|---------------|---------------------|
|-------------|--------------|---------------|-----2---2-3-3/5-5---|
|---2-----1---|---3------2---|---1-------1---|---------------------|
|-------------|------------0-|-------2-------|---2---2-------------|
|-------------|--------------|---------------|-0-------------------|
|-3---3-2---2-|-5---5\-0-----|-2---2---2---2-|-------------------0-|

 E   D#  F#m            C#m  D#                              G#
 Welcome to the soldier side - where there's no one here but me



  Q E E Q E E   Q E E  Q E S S   Q E E E E E E   E E E E S S a E E E
|-------------|----------------|---------------|---------------------|
|-------------|----------------|---------------|-----2---2-3-3/5-5---|
|---2-----1---|---3------2-----|---1-------1---|---------------------|
|-------------|------------0---|-------2-------|---2---2-------------|
|-------------|----------------|---------------|-0-------------------|
|-3---3-2---2-|-5---5\-0-----0-|-2---2---2---2-|-------------------0-|

 E   D# F#m            C#m D#                         G#
 People all grow up to die - there is no one here but me



OUTRO:
   E            D#            F#m                  C#m        D#                G#
                                          |--3--|
   E E  S  S  E E E E S  S    E  S  S  a  E  E  E  E E  E E   E E E E E E E E   E E E E  H
|--------------------------|--------------------------------|-----------------|--------------|
|-10---10-11-10-9---9------|----11s13-13s15-13-11-10---10---|-9---9-------9---|---------10---|
|--x------------x----------|----12s14-14s15-14-12-----------|-9-------9-------|-----9--------|
|--x------------x----------|--------------------------------|-x---------------|---7---7------|
|--8-8----------7-7---7/10-|-10----------------------8----8-|-7-7---7---7---7-|--------------|
|--------------------------|--------------------------------|-----------------|-7------------|




- 20th /August /05
Just mail me at Maitinin@gmail.com with questions, comments or corrections!






**********************************************************************************************

    ____________________
   / System of a Down  /  This song contains one of the most important points of the entire
  / B.Y.O.B.          /  Mezmerize. I think it's about how the poor population of the U.S. is
 / Mezmerize         /  crying for freedom in the American system that keeps them down, while
/___________________/  it afterwards sends it them into war, into Iraq this time.



Tuning: Db Ab Db Gb Bb Eb
        C# G# C# F# A# D#
Gtr I - Electric, Distorted (left speaker)
Gtr II - Electric, Distorted (right speaker)


 Intro
 Q=155 bpm
 4/4
 Gtr I
    S S S S S S S S S S S S S S S S  3x  S S S S S S S S S S S S S S S S  3x
||-----------------------------------||-----------------------------------||
||o---------------------------------o||o---------------------------------o||
||-----------------------------------||-----------------------------------||
||--7p0-0-0-0-0-0-0-7p0-0-8p0-0-7p0--||--7p0-0-8p0-0-7p0-7p0-0-8p0-0-7p0--||
||o---------------------------------o||o---------------------------------o||
||-----------------------------------||-----------------------------------||


 Gtr I, II
    S S S S S S S S S S S S S S S S   S S S S S S S S E.     E.     E
||----------------------------------|-----------------------------------|
||o---------------------------------|-----------------------------------|
||----------------------------------|-----------------------------------|
||----------------------------------|-----------------9-----10-----12---|
||o---------------------------------|-----------------7------8-----10---|
||--0-0-0-8-0-0-7-8-0-0-0-8-0-0-7-8-|-0-0-0-8-0-0-7-8-------------------|



  S S S S S S S S S S S S S S S S   S S S S S S S S  E.     E.    E
|---------------------------------|------------------------------------||
|---------------------------------|-----------------------------------o||
|---------------------------------|------------------------------------||
|---------------------------------|-----------------12-----10-----9----||
|---------------------------------|-----------------10------8-----7---o||
|-0-0-0-8-0-0-7-8-0-0-0-8-0-0-7-8-|-0-0-0-8-0-0-7-8--------------------||


  W
|---------------------------------|
|---------------------------------|
|---------------------------------|
|---------------------------------|
|---------------------------------|
|---------------------------------|
...why do they alway send the poor?...




 1st Verse
 Q=105 bpm
    PM----------------------------------|          PM--------------------|
    |----3----| |----3----| |----3----|            |----3----| |----3----|
    S S S S S S S S S S S S S S S S S S e    E     S S S S S S S S S S S S  Q        E   E
||-----------------------------------------------|--------------------------------------------||
||o----------------------------------------------|-------------------------------------------o||
||-----------------------------------------------|--------------------------------------------||
||------------------------------------------10---|-------------------------12-------10---9----||
||o------------------------------------------8---|-------------------------10--------8---7---o||
||--7-0-0-8-0-0-7-0-0-8-0-0-7-0-0-8-0-0-7--------|-7-0-0-8-0-0-7-0-0-8-0-0--------------------||
 |-Riff A                                                                          end Riff A-|
...barbarism by Barbaras...



  PM------------------------------------------------------------------------------------|
  |----3----| |----3----| |----3----| |----3----|   |----3----| |----3----| |----3----|
  S S S S S S S S S S S S S S S S S S S S S S S S   S S S S S S S S S S S S S S S S S S e     E
|-------------------------------------------------|----------------------------------------------|
|-------------------------------------------------|----------------------------------------------|
|-------------------------------------------------|----------------------------------------------|
|-------------------------------------------------|-----------------------------------------10---|
|-------------------------------------------------|------------------------------------------8---|
|-7-0-0-8-0-0-7-0-0-8-0-0-7-0-0-8-0-0-7-0-0-8-0-0-|-7-0-0-8-0-0-7-0-0-8-0-0-7-0-0-8-0-0-7--------|



  PM----------------------------------------------------------------------|               PM
  |----3----| |----3----| |----3----| |----3----|   |----3----| |----3----|
  S S S S S S S S S S S S S S S S S S S S S S S S   S S S S S S S S S S S S Q       E.    S
|-------------------------------------------------|-----------------------------------------|
|-------------------------------------------------|-----------------------------------------|
|-------------------------------------------------|-----------------------------------------|
|-------------------------------------------------|-----------------------------------------|
|-------------------------------------------------|-------------------------5-------3-----2-|
|-7-0-0-8-0-0-7-0-0-8-0-0-7-0-0-8-0-0-7-0-0-8-0-0-|-7-0-0-8-0-0-7-0-0-8-0-0-5-------3-----2-|




 Pre-Chorus
  PM|               PM----------------|               PM--|
  S S q       e.    S S S S S S S   S S q       e.    S S S S S E
|---------------------------------|---------------------------------|
|---------------------------------|---------------------------------|
|---------------------------------|---------------------------------|
|---------------------------------|-----5-------5-----------3p2-0---|
|-3-2-0-------0-----0-2-3-5-3-2-0-|-2-0-3-------3-----0-3-5---------|
|-3-2-0-------0-----0-2-3-5-3-2-0-|-2-0-----------------------------|



  PM|               PM----------------|
  S S q       e.    S S S S S S S   S S q       S S S S S S Q
|---------------------------------|---------------------------------|
|---------------------------------|---------------------------------|
|---------------------------------|---------------------------------|
|---------------------------------|---------------------------------|
|-3-2-0-------0-----0-5-7-8-7-5-3-|-5-3-2------*3b5r3b5r3b5r3-------|
|-3-2-0-------0-----0-5-7-8-7-5-3-|-5-3-2---------------------------|
                                               *it's actually only a 1.5 bend
                                               (3b4.5) and not a full bend (3b5)



 Chorus
  PM--|       PM    PM------------------|       PM    PM--------|
  S S e   E   e   S S e.    S e     S S e   E   e   S S e.    S e
|---------------------------------|---------------------------------|
|---------------------------------|---------------------------------|
|---------------------------------|---------------------------------|
|---------------------------------|-5-5-5-------5-----5-5-----5-5---|
|-0-0-0-------0-----0-0-----0-0---|-3-3-3-------3-----3-3-----3-3---|
|-0-0-0-------0-----0-0-----0-0---|---------------------------------|
...everybody's going to the party...


  PM--|       PM    PM----------------|
  S S e   E   e   S S S S S S S S   S S q       S S S S S S Q
|---------------------------------|---------------------------------|
|---------------------------------|---------------------------------|
|---------------------------------|---------------------------------|
|---------------------------------|---------------------------------|
|-0-0-0-------0-----0-5-7-8-7-5-3-|-5-3-2-------3b5r3b5r3b5r3-------|
|-0-0-0-------0-----0-5-7-8-7-5-3-|-5-3-2---------------------------|
                                                *Gtr I bends the artificial
                                                 harmonic on the 2.6th fret


  PM--|       PM    PM------------------|       PM    PM--------|
  S S e   E   e   S S e.    S e     S S e   E   e   S S e.    S e
|---------------------------------|---------------------------------|
|---------------------------------|---------------------------------|
|---------------------------------|---------------------------------|
|---------------------------------|-5-5-5-------5-----5-5-----5-5---|
|-0-0-0-------0-----0-0-----0-0---|-3-3-3-------3-----3-3-----3-3---|
|-0-0-0-------0-----0-0-----0-0---|---------------------------------|



  PM--|       PM    PM----------------|
  S S e   E   e   S S S S S S S S   S S q       S S H
|---------------------------------|---------------------------------|
|---------------------------------|---------------------------------|
|---------------------------------|---------------------------------|
|---------------------------------|---------------------------------|
|-0-0-0-------0-----0-5-7-8-7-5-3-|-5-3-2-------3b5r3---------------|
|-0-0-0-------0-----0-5-7-8-7-5-3-|-5-3-2---------------------------|




 2nd Verse
Riff A x2, then:

  PM----------------------------------|          PM--------------------|               PM
  |----3----| |----3----| |----3----|            |----3----| |----3----|
  S S S S S S S S S S S S S S S S S S e    E     S S S S S S S S S S S S Q       E.    S
|----------------------------------------------|-----------------------------------------|
|----------------------------------------------|-----------------------------------------|
|----------------------------------------------|-----------------------------------------|
|-----------------------------------------10---|-----------------------------------------|
|------------------------------------------8---|-------------------------5-------3-----2-|
|-7-0-0-8-0-0-7-0-0-8-0-0-7-0-0-8-0-0-7--------|-7-0-0-8-0-0-7-0-0-8-0-0-5-------3-----2-|




 Pre-Chorus
similar to previous




 Chorus
    PM--|       PM    PM------------------|       PM    PM--------|
    S S e   E   e   S S e.    S e     S S e   E   e   S S e.    S e
||----------------------------------|---------------------------------|
||o---------------------------------|---------------------------------|
||----------------------------------|---------------------------------|
||----------------------------------|-5-5-5-------5-----5-5-----5-5---|
||o-0-0-0-------0-----0-0-----0-0---|-3-3-3-------3-----3-3-----3-3---|
||--0-0-0-------0-----0-0-----0-0---|---------------------------------|


  PM--|       PM    PM----------------|
  S S e   E   e   S S S S S S S S   S S q       S S S S S S Q        3x
|---------------------------------|----------------------------------||
|---------------------------------|---------------------------------o||
|---------------------------------|----------------------------------||
|---------------------------------|----------------------------------||
|-0-0-0-------0-----0-5-7-8-7-5-3-|-5-3-2-------3b5r3b5r3b5r3-------o||
|-0-0-0-------0-----0-5-7-8-7-5-3-|-5-3-2----------------------------||


  PM--|       PM    PM------------------|       PM    PM--------|
  S S e   E   e   S S e.    S e     S S e   E   e   S S e.    S e
|---------------------------------|---------------------------------|
|---------------------------------|---------------------------------|
|---------------------------------|---------------------------------|
|---------------------------------|-5-5-5-------5-----5-5-----5-5---|
|-0-0-0-------0-----0-0-----0-0---|-3-3-3-------3-----3-3-----3-3---|
|-0-0-0-------0-----0-0-----0-0---|---------------------------------|


  PM--|       PM    PM----------------|
  S S e   E   e   S S S S S S S S   S S q       S S H
|---------------------------------|---------------------------------|
|---------------------------------|---------------------------------|
|---------------------------------|---------------------------------|
|---------------------------------|---------------------------------|
|-0-0-0-------0-----0-5-7-8-7-5-3-|-5-3-2-------3b5r3---------------|
|-0-0-0-------0-----0-5-7-8-7-5-3-|-5-3-2---------------------------|




 Bridge
 Q=155 bpm
    E   E   E   E    E   S E   S E     E   E   E   E    E   S E   S E    4x
||-----------------------------------|-----------------------------------||
||o----------------------------------|----------------------------------o||
||-----------------------------------|-----------------------------------||
||-----------------------------------|-----------------------------------||
||o-5---7---7---7---10---7-8---7-8---|-5---7---7---7---10---7-8---7-8---o||
||--5---7---7---7---10---7-8---7-8---|-5---7---7---7---10---7-8---7-8----||
...blast off, it's party time...



    E   E   E   E   E   E   E   E     S S S S S S S S S S S S S S S S
||----------------------------------|---------------------------------|
||o---------------------------------|---------------------------------|
||----------------------------------|---------------------------------|
||--7---7---7---7---3---3---3---3---|---------------------------------|
||o-5---5---5---5---1---1---1---1---|-7p0-0-8p0-0-7p0-7p0-0-8p0-0-7p0-|
||----------------------------------|---------------------------------|


                                   1.
  E   E   E   E   E   E   E   E     S S S S S S S S S S S S S S S S
|---------------------------------|----------------------------------||
|---------------------------------|---------------------------------o||
|---------------------------------|----------------------------------||
|-7---7---7---7---3---3---3---3---|----------------------------------||
|-5---5---5---5---1---1---1---1---|-7p0-0-8p0-0-7p0-7p0-0-8p0-0-7p0-o||
|---------------------------------|----------------------------------||


 2.
    S S S S S S S S S S S S S S S S  3x e   E   H.
||-----------------------------------||---------------------------------|
||o---------------------------------o||---------------------------------|
||-----------------------------------||---------------------------------|
||-----------------------------------||---------------------------------|
||o-7p0-0-0-0-0-0-0-7p0-0-8p0-0-7p0-o||-7-------------------------------|
||-----------------------------------||---------------------------------|




 3rd Verse
 Q=105 bpm
similar to 2nd Verse




 Pre-Chorus
similar to previous




 Chorus
similar to previous, but quit the last two bars




 Bridge
 Q=155 bpm
    E   E   E   E   E   E   E   E     S S S S S S S S S S S S S S S S
||----------------------------------|---------------------------------|
||o---------------------------------|---------------------------------|
||----------------------------------|---------------------------------|
||--7---7---7---7---3---3---3---3---|---------------------------------|
||o-5---5---5---5---1---1---1---1---|-7p0-0-8p0-0-7p0-7p0-0-8p0-0-7p0-|
||----------------------------------|---------------------------------|


                                   1.
  E   E   E   E   E   E   E   E     S S S S S S S S S S S S S S S S
|---------------------------------|----------------------------------||
|---------------------------------|---------------------------------o||
|---------------------------------|----------------------------------||
|-7---7---7---7---3---3---3---3---|----------------------------------||
|-5---5---5---5---1---1---1---1---|-7p0-0-8p0-0-7p0-7p0-0-8p0-0-7p0-o||
|---------------------------------|----------------------------------||


 2.
    S S S S S S S S S S S S S S S S  3x  S  S  S  E    S  S  S  S S S S S S S S
||-----------------------------------||-----------------------------------------|
||o---------------------------------o||-----------------------------------------|
||-----------------------------------||-----------------------------------------|
||-----------------------------------||-----------------------------------------|
||o-7p0-0-0-0-0-0-0-7p0-0-8p0-0-7p0-o||-----------------------------------------|
||-----------------------------------||-17-16-15-14---13-12-11-10-9-8-7-6-5-4-3-|
                                      (anyways, just slide down from 17)



 Outro
    S S S S S S S S S S S S S S S S   S S S S S S S S S S S S S S S S   4x
||----------------------------------|-----------------------------------||
||o---------------------------------|----------------------------------o||
||----------------------------------|-----------------------------------||
||----------------------------------|-----------------------------------||
||o-0-0-0-0-0-0-0-0-7p0-0-8p0-0-7p0-|-0-0-0-0-0-0-0-0-7p0-0-8p0-0-7p0--o||
||----------------------------------|-----------------------------------||
...why do they always send the poor?...




- 16th /May /05
Just mail me at Maitinin@gmail.com with questions, comments and corrections!






**********************************************************************************************

    ____________________
   / System of a Down  /  I think this song is about this guy being dumped by the
  / Revenga           /  love of his life and how he gets so furious that he gets
 / Mezmerize         /  murderous thoughts about her. It could also be interpret
/___________________/  with a perverse twist. 'Bleeding in a sink' and 'the taking
                      is in the making baby' could hint at the poor guy made his
now former girlfriend in his rage and eager for revenge. I think he would do it to
leave his signs at her, like showing her that he had actually meant something in
her life.



Tunings: Db Ab Db Gb Bb Eb
         C# G# C# F# A# D#
Gtr I - Clean
Gtr II, III - Distorted
Gtr IV - Distorted /w Tremolo effect equal to 16th parts
 (I'm not sure wether Daron actually use the pedal or not, as he has with
  the years become skilled enough to actually play this riff without.)



 Intro:
 4/4
 Q=140 bpm
 Gtr I
  Dbm                                    Absus4/Db
  W                 +W                   W                  +W
|-----------------|-------------------|------------------|--------------------|
|-6---------------|-(6)---------------|-10---------------|-(10)---------------|
|-7---------------|-(7)---------------|--9---------------|--(9)---------------|
|-0---------------|-(0)---------------|--0---------------|--(0)---------------|
|-0---------------|-(0)---------------|------------------|--------------------|
|-0---------------|-(0)---------------|------------------|--------------------|


   Amaj7/Db                                 G/Db
   W                  +H         Q    Q     W                 +H.            Q
|------------------|----------------------|-----------------|---------------------|
|-11---------------|-(11)-------11---10---|-9---------------|-(9)-----------------|
|-10---------------|-(10)-------10----9---|-8---------------|-(8)-----------------|
|--0---------------|--(0)--------0----0---|-0---------------|-(0)-----------------|
|--0---------------|--(0)-----------------|-----------------|----------------*----|
|--0---------------|--(0)-----------------|-----------------|---------------12\---|
                                                            *the distorted guitars
                                                             do this slide as well



 Main Riff:
 Gtr II, III
    Db5                               Db5             Ab5
    PM----------------------------------------|
    E   S S E   S S E   S S E   S S   E   S S E   E   E   E   E   +E
||----------------------------------|------------------------------------|
||o---------------------------------|------------------------------------|
||----------------------------------|------------------------------------|
||----------------------------------|-----------------8---8---8---(8)\---|
||o-0---0-0-0---0-0-0---0-0-0---0-0-|-0---0-0-0---0---8---8---8---(8)\---|
||--0---0-0-0---0-0-0---0-0-0---0-0-|-0---0-0-0---0---8---8---8---(8)\---|


  PM--------------------|
  Db5                               A AbGb  A AbGb  A AbGb  A AbGb
  E   S S E   S S E   S S E   E     S S E   S S E   S S E   S S E    2x
|---------------------------------|----------------------------------||
|---------------------------------|---------------------------------o||
|---------------------------------|----------------------------------||
|---------------------------------|----------------------------------||
|-0---0-0-0---0-0-0---0-0-0---0---|---------------------------------o||
|-0---0-0-0---0-0-0---0-0-0---0---|-8-7-5---8-7-5---8-7-5---8-7-5----||




 1st Verse:
    Db                                Db                       C5
    PM------------------------------------------------------|
    S S S S E   S S S S E   S S S S   E   S S S S E   S S S S  Q
||----------------------------------|---------------------------------|
||o---------------------------------|---------------------------------|
||----------------------------------|---------------------------------|
||----------------------------------|-------------------------11------|
||o---------------------------------|-------------------------11------|
||--0-0-0-0-0---0-0-0-0-0---0-0-0-0-|-0---0-0-0-0-0---0-0-0-0-11------|
...poisoning a drink, bleeding in a sink...


                                   1.
  Db                                 C5       Db5      C5  A5  Ab5
  PM----------------------------|
  S S S S E   S S S S E   S S S S    Q        Q        E   E   Q
|---------------------------------|-------------------------------------||
|---------------------------------|------------------------------------o||
|---------------------------------|-------------------------------------||
|---------------------------------|-11-------12-------11---8---7--------||
|---------------------------------|-11-------12-------11---8---7-------o||
|-0-0-0-0-0---0-0-0-0-0---0-0-0-0-|-11-------12-------11---8---7--------||


 2.
   C5       Db5      Eb5      E5
   Q        Q        Q        Q
|-------------------------------------||
|-------------------------------------||
|-------------------------------------||
|-11-------12-------14-------15-------||
|-11-------12-------14-------15-------||
|-11-------12-------14-------15-------||




 Chorus:
    Db5                               Db5
            PM------------------|             PM------------------|
    Q       E   E   E   E   E   E     Q       E   E   E   E   E   E
||----------------------------------|---------------------------------|
||o---------------------------------|---------------------------------|
||----------------------------------|---------------------------------|
||--0-------------------------------|-0-------------------------------|
||o-0-------0---0---0---0---0---0---|-0-------0---0---0---0---0---0---|
||--0-------0---0---0---0---0---0---|-0-------0---0---0---0---0---0---|


  Ab5                               Ab5
          PM------------------|             PM------------------|
  Q       E   E   E   E   E   E     Q       E   E   E   E   E   E
|---------------------------------|---------------------------------|
|---------------------------------|---------------------------------|
|---------------------------------|---------------------------------|
|-7-------------------------------|-7-------------------------------|
|-7-------7---7---7---7---7---7---|-7-------7---7---7---7---7---7---|
|-7-------7---7---7---7---7---7---|-7-------7---7---7---7---7---7---|


  A5                                A5
          PM------------------|             PM--|
  Q       E   E   E   E   E   E     Q       E   E   Q       Q
|---------------------------------|---------------------------------|
|---------------------------------|---------------------------------|
|---------------------------------|---------------------------------|
|-8-------------------------------|-8---------------8-------7-------|
|-8-------8---8---8---8---8---8---|-8-------8---8---8-------7-------|
|-8-------8---8---8---8---8---8---|-8-------8---8---8-------7-------|


                                   1.
  G5                                E5
          PM------------------|             PM------------------|
  Q       E   E   E   E   E   E     Q       E   E   E   E   E   E
|---------------------------------|----------------------------------||
|---------------------------------|---------------------------------o||
|---------------------------------|----------------------------------||
|-6-------------------------------|-3--------------------------------||
|-6-------6---6---6---6---6---6---|-3-------3---3---3---3---3---3---o||
|-6-------6---6---6---6---6---6---|-3-------3---3---3---3---3---3----||


 2.
  E5                       Db5
          PM----------|
  Q       E   E   E   E    Q
|-----------------------------------||
|-----------------------------------||
|-----------------------------------||
|-3---------------------------------||
|-3-------3---3---3---3---12\-------||
|-3-------3---3---3---3---12\-------||




 2nd Verse:
similar to 1st Verse




 Chorus:
similar to previous




 Main Riff:
similar to previous




 Interlude: x2
similar to Intro, just forget the slide 1st time




 Solo:
 Gtr IV
  Dbmmaj7                               Emmaj7
  Q   Q   Q   Q      Q    Q   Q   Q     Q    Q    Q    Q      Q    Q   Q    Q
|-----------------|-------------------|--------------------|--------------------|
|-----------------|-------------------|--------------------|--------------------|
|-----7-----------|-------------------|-----10-------------|--------------------|
|---------7-------|-------------------|----------10--------|--------------------|
|-5-----------8---|--5----4---5---7---|-8-------------11---|--8----7---8---10---|
|-----------------|-------------------|--------------------|--------------------|
|
|Gtr II, III
| Db5                Db5      Gb5       E5                    E5
| W                 +H        H         W                    +H        H
|-----------------|-------------------|--------------------|--------------------|
|-----------------|-------------------|--------------------|--------------------|
|-----------------|-------------------|--------------------|--------------------|
|-0---------------|-(0)-------5-------|-3------------------|-(3)-------3--------|
|-0---------------|-(0)-------5-------|-3------------------|-(3)-------3--------|
|-0---------------|-(0)-------5-------|-3------------------|-(3)-------3--------|


  Dmmaj7                              Dbmmaj7
  Q   Q   Q   Q     Q   Q   Q   Q     Q   Q   Q   Q     Q   Q   Q   Q
|-----------------|-----------------|-----------------|-----------------|
|-----------------|-----------------|-----------------|-----------------|
|-----8-----------|-----------------|-----7-----------|-----------------|
|---------8-------|-----------------|---------7-------|-----------------|
|-6-----------9---|-6---5---6---8---|-5-----------8---|-5---4---5---7---|
|-----------------|-----------------|-----------------|-----------------|
|
| D5                D5                Db5               Db5
| W                 W                 W                 W
|-----------------|-----------------|-----------------|-----------------|
|-----------------|-----------------|-----------------|-----------------|
|-----------------|-----------------|-----------------|-----------------|
|-1---------------|-1---------------|-0---------------|-0---------------|
|-1---------------|-1---------------|-0---------------|-0---------------|
|-1---------------|-1---------------|-0---------------|-0---------------|




 Chorus:
similar to previous



 Outro:
first repeat of a Verse, Main Riff, end on:

 Gtr II, III
  Db5
  W
|-----------------|
|-----------------|
|-----------------|
|-0---------------|
|-0---------------|
|-0---------------|




- 22nd /January /06
Just mail me at Maitinin@gmail.com with questions, comment and corrections!






**********************************************************************************************

    ____________________
   / System of a Down  /  I think this song is about the U.S. being the dominating
  / Cigaro            /  superpower. It is about how they are being the regulators
 / Mezmerize         /  of every country in the world by bombing and destroying every
/___________________/  country that does not recline to their demands and that might
                      consist of even a slight threat. For instance when they threatened
Iran if they did not terminate their construction of the nuclear power plant, as it
would probably be used for producing nuclear bombs, which, as far as I remember,
the U.S. ironically has enough of to destroy every inch of the planet.


Tunings: Db Ab Db Gb Bb Eb
         C# G# C# F# A# D#
Gtr I, II - Electric, Distorted



 Intro:
  4/4
  Q=110 bpm
  Gtr I, II
    PM|     PM|     PM|     PM|       PM|     PM|
    S S S S S S S S S S S S S S S S   S S S S S S S S  S  S  S  S  S S  S    2x
||----------------------------------|----------------------------------------||
||o---------------------------------|---------------------------------------o||
||----------------------------------|----------------------------------------||
||--0-0-1p0-0-0-1p0-0-0-1p0-0-0-1p0-|-0-0-1p0-0-0-1p0------------------------||
||o-0-0-1p0-0-0-1p0-0-0-1p0-0-0-1p0-|-0-0-1p0-0-0-1p0-13-12-10-12-10-8-10-8-o||
||--0-0-1p0-0-0-1p0-0-0-1p0-0-0-1p0-|-0-0-1p0-0-0-1p0-13-12-10-12-10-8-10-8--||


  PM----------------------------------------------|
  S S S S S S S S S S S S S S S S   S S S S S S S S S S S S S S S S
|---------------------------------|---------------------------------|
|---------------------------------|---------------------------------|
|---------------------------------|---------------------------------|
|---------------------------------|-----------------*---------------|
|-1-0-1-0-1-0-1-0-1-0-1-0-1-0-1-0-|-1-0-1-0-1-0-1-0-6-5-3-5-3-1-3-1-|
|-1-0-1-0-1-0-1-0-1-0-1-0-1-0-1-0-|-1-0-1-0-1-0-1-0-----------------|
                                   *hit a lot of muted strings to 'compensate'
                                    for the fifths that is played second time*


  PM----------------------------------------------|
  S S S S S S S S S S S S S S S S   S S S S S S S S  S  S  S  S  S S  S S
|---------------------------------|---------------------------------------|
|---------------------------------|---------------------------------------|
|---------------------------------|---------------------------------------|
|---------------------------------|---------------------------------------|
|-1-0-1-0-1-0-1-0-1-0-1-0-1-0-1-0-|-1-0-1-0-1-0-1-0-13-12-10-12-10-8-10-8-|
|-1-0-1-0-1-0-1-0-1-0-1-0-1-0-1-0-|-1-0-1-0-1-0-1-0-13-12-10-12-10-8-10-8-|




 1st Verse:
  S S S S H.                        E    S  S  E    S  S  S  S  S  S S S S S
|---------------------------------|------------------------------------------|
|---------------------------------|------------------------------------------|
|---------------------------------|------------------------------------------|
|-0-0-0---------------------------|------------------------------------------|
|-0-0-0---------------------------|-----15p14-14---15p14-12p11-12p11-8p7-8p7-|
|-0-0-0---------------------------|-----15p14-14---15p14-12p11-12p11-8p7-8p7-|
...my cock is my much bigger than yours...


   S  S  S S H.                        E    S  S  E    S  S  S  S  S  S S S S S
|------------------------------------|------------------------------------------|
|------------------------------------|------------------------------------------|
|------------------------------------|------------------------------------------|
|-12-12-12---------------------------|------------------------------------------|
|-12-12-12---------------------------|-----15p14-14---15p14-12p11-12p11-8p7-8p7-|
|-12-12-12---------------------------|-----15p14-14---15p14-12p11-12p11-8p7-8p7-|




 Chorus:
    PM|     PM|     PM|     PM|       PM|     PM|
    S S S S S S S S S S S S S S S S   S S S S S S S S  S  S  S  S  S S  S    2x
||----------------------------------|----------------------------------------||
||o---------------------------------|---------------------------------------o||
||----------------------------------|----------------------------------------||
||--0-0-1p0-0-0-1p0-0-0-1p0-0-0-1p0-|-0-0-1p0-0-0-1p0------------------------||
||o-0-0-1p0-0-0-1p0-0-0-1p0-0-0-1p0-|-0-0-1p0-0-0-1p0-13-12-10-12-10-8-10-8-o||
||--0-0-1p0-0-0-1p0-0-0-1p0-0-0-1p0-|-0-0-1p0-0-0-1p0-13-12-10-12-10-8-10-8--||
...cool, in denial...



 2nd Verse:
     S  S  S S H.                        E    S  S  E    S  S  S  S  S  S S S S S  2x
||-------------------------------------|-------------------------------------------||
||o------------------------------------|------------------------------------------o||
||-------------------------------------|-------------------------------------------||
||--12-12-12---------------------------|-------------------------------------------||
||o-12-12-12---------------------------|-----15p14-14---15p14-12p11-12p11-8p7-8p7-o||
||--12-12-12---------------------------|-----15p14-14---15p14-12p11-12p11-8p7-8p7--||
...my shit stinks much better than yours...




 Chorus:
similar to previous




 Alternate Chorus:
 Gtr I
    PM----------------------------------------------|
    S S S S S S S S S S S S S S S S   S S S S S S S S S S S S S S S S
||----------------------------------|----------------------------------||
||o---------------------------------|---------------------------------o||
||----------------------------------|----------------------------------||
||----------------------------------|----------------------------------||
||o-6-5-6-5-6-5-6-5-6-5-6-5-6-5-6-5-|-6-5-6-5-6-5-6-5-6-5-3-5-3-1-3-1-o||
||----------------------------------|----------------(riff)------------||
|
|Gtr II
|   PM--------------------------------------------------------------|
|   S S S S S S S S S S S S S S S S   S S S S S S S S S S S S S S S S
||----------------------------------|----------------------------------||
||o---------------------------------|---------------------------------o||
||----------------------------------|----------------------------------||
||----------------------------------|----------------------------------||
||o-6-5-6-5-6-5-6-5-6-5-6-5-6-5-6-5-|-6-5-6-5-6-5-6-5-6-5-6-5-6-5-6-5-o||
||----------------------------------|----------------(no riff)---------||




 Interlude:
  Gtr I, II
   PM|     PM|     PM|     PM|
   S S e   S S e   S S e   S S e     S S S S S S S S S S S S S S S S
||----------------------------------|---------------------------------|
||o-----6-------6-------6-------6---|-6-5-6-5-------------------------|
||------7-------7-------7-------7---|---------7-6-7-6-----------------|
||--0-0-0---0-0-0---0-0-0---0-0-0---|-----------------8-7-8-0-5-3-5-3-|
||o-0-0-----0-0-----0-0-----0-0-----|---------------------------------|
||--0-0-----0-0-----0-0-----0-0-----|---------------------------------|
...can't you see that I love my cock?...


 1.
  PM----------------------------|
  S S S S S S S S S S S S S S S S   S S S S S S S S S S S S S S S S
|---------------------------------|----------------------------------||
|---------------------------------|-6-5-6-5-------------------------o||
|---------------------------------|---------7-6-7-6------------------||
|---------------------------------|-----------------8-7-8-0-5-3-5-3--||
|-0-0-0-0-0-0-0-0-0-0-0-0-0-0-0-0-|---------------------------------o||
|-0-0-0-0-0-0-0-0-0-0-0-0-0-0-0-0-|----------------------------------||


 2.
  S S S S S S S S S S S S S S S S   S S S S S S S S S S S S S S S S
|---------------------------------|---------------------------------||
|-6-5-6-5-------------------------|-6-5-6-5-------------------------||
|---------7-6-7-6-----------------|---------7-6-7-6-----------------||
|-----------------8-7-8-0-5-3-5-3-|-----------------8-7-8-0-5-3-5-3-||
|---------------------------------|---------------------------------||
|---------------------------------|---------------------------------||




 Bridge:
     S  S  S  S  S  S  S  S  S  S  S  S  S  S  S  S    S  S  S  S  S  S  S  S  Q   Q    4x
||--------------------------------------------------|-----------------------------------||
||o-------------------------------------------------|----------------------------------o||
||--------------------------------------------------|------------------------------0----||
||--------------------------------------------------|-----------------------------------||
||o-15p14-15p14-17p15-17p15-14p12-14p12-14p12-14p12-|-12p11-12p11-12p11-12p11----------o||
||--15p14-15p14-17p15-17p15-14p12-14p12-14p12-14p12-|-12p11-12p11-12p11-12p11-11--------||




 Chorus:
similar to previous




 Bridge:
similar to previous, just play it only twice




 Chorus:
similar to previous




 Outro:
  PM--------------------------------------------------------------|
  S S S S Q       S S S S Q         S S S S Q       S S S S S S S S
|---------------------------------|---------------------------------|
|---------------------------------|---------------------------------|
|---------------------------------|---------------------------------|
|---------------------------------|---------------------------------|
|-0-0-0-----------0-0-0-----------|-0-0-0-----------0-0-0---0-0-0---|
|-0-0-0-----------0-0-0-----------|-0-0-0-----------0-0-0---0-0-0---|


  PM--------------------------------------------|   |----------3----------|
  S S S S S S S S S S S S S S S S   S S S S S S S S S S S S S S S S S S S S
|---------------------------------|-----------------------------------------|
|---------------------------------|-----------------------------------------|
|---------------------------------|-----------------7-7-7-7-7-7-7-7-7-7-7-7-|
|---------------------------------|-----------------7-7-7-7-7-7-7-7-7-7-7-7-|
|-0-0-0---0-0-0---0-0-0---0-0-0---|-0-0-0---0-0-0---5-5-5-5-5-5-5-5-5-5-5-5-|
|-0-0-0---0-0-0---0-0-0---0-0-0---|-0-0-0---0-0-0---------------------------|


  E   Q.          H
|---------------------------------|
|---------------------------------|
|-7-------------------------------|
|-7-------------------------------|
|-5-------------------------------|
|---------------------------------|




- 22nd /January /06
Just mail me at Maitinin@gmail.com with questions, comments and corrections!






**********************************************************************************************

    ___________________
   / System of a Down /  I think this song is about how the medias consume the
  / Radio / Video    /  poor people that just wanted their 15 minutes of fame.
 / Mezmerize        /  And then also about how much crap that is actually
/__________________/  shown in the medias today.

Rhythm: 4 / 4
Tuning: Db Ab Db Gb Bb Eb
        C# G# C# F# A# D#
Guitar I   - Clean
Guitar II  - Clean
Guitar III - Clean
Guitar IV  - Distorted



INTRO:

 Q=70 bpm
 Gtr I
    E S T T S S S E  E S  E S  S    T  T S S E S E  T T S S E S S T T
||----6-------8-----10---10---10-|-11-10-8---8---8-10-8-6---6---6-----|
||o------------------------------|------------------------------------|
||-------------------------------|------------------------------------|
||--5---x-x-7---7-8----8----8----|---------7---7----------5---5---x-x-|
||o------------------------------|------------------------------------|
||-------------------------------|------------------------------------|


  E S T T S S S E  E S  E S  S    T  T S S E S S S E  E E E
|---6-------8-----10---10---10-|-11-10-9---9---9-------------||
|------------------------------|----------------------------o|| tempo slowed to
|------------------------------|-----------------8-7--!-!-!--|| 55 bpm on the 3
|-5---5s6-7---7-8----8----8----|---------7---7-------10-8-7--|| marked (!) notes
|------------------------------|----------------------------o|| in second repeat
|------------------------------|-----------------------------||



CHORUS:

 Gtr IV
  S S E S S S S +H    T T E. +H.     S S E S S S S +H    T T E. +H.
|-------------------|--------------|-------------------|--------------|
|-------------------|--------------|-------------------|--------------|
|-------------------|--------------|-------------------|-8-8-6--(6)---|
|-5-5---7-7---8-(8)-|-9-9-7--(7)---|-5-5---7-7---8-(8)-|-8-8-6--(6)---|
|-5-5---7-7---8-(8)-|-9-9-7--(7)---|-5-5---7-7---8-(8)-|-6-6-4--(4)---|
|-5-5---7-7---8-(8)-|-9-9-7--(7)---|-5-5---7-7---8-(8)-|--------------|

  S S E S S S S +H    T T E. +H.     S S E S S S S +H    T T Q.  S E E E E
|-------------------|--------------|-------------------|-------------------|
|-------------------|--------------|-------------------|-------------------|
|-------------------|--------------|-------------------|-8-8-6---8-7-5-3-2-|
|-5-5---7-7---8-(8)-|-9-9-7--(7)---|-5-5---7-7---8-(8)-|-8-8-6---8-7-5-3-2-|
|-5-5---7-7---8-(8)-|-9-9-7--(7)---|-5-5---7-7---8-(8)-|-6-6-4---6-5-3-1-0-|
|-5-5---7-7---8-(8)-|-9-9-7--(7)---|-5-5---7-7---8-(8)-|-------------------|



VERSE PART 1:

 Gtr I
  S S S S S S S  S  S  S  S  S  S  S  S  S    S S S S S S S  S  S  S  S  S  S  S  S  S
|---3---3---3----3-----3-----3-----3-----3-|----1---1---1----1-----1-----1-----1-----1-|
|---3---3---3----3-----3-----3-----3-----3-|----1---1---1----1-----1-----1-----1-----1-|
|---3---3---3----3-----3-----3-----3-----3-|----2---2---2----2-----2-----2-----2-----2-|
|---5---5---5----5-----5-----5-----5-----5-|----3---3---3----3-----3-----3-----3-----3-|
|---5---5---5----5-----5-----5-----5-----5-|----3---3---3----3-----3-----3-----3-----3-|
|------------------------------------------|-------------------------------------------|
|-Rhy Fig 1                                                              end Rhy Fig 1-|
|
|Gtr II
|                S  E     E     E     E       H.             S  E     E     E     E
|------------------------------------------|-------------------------------------------|
|------------------------------------------|-------------------------------------------|
|----------------8--8-----7----------------|-----------------7--7----------------------|
|------------------------------10-----8----|--7----------------------10-----8-----7----|
|------------------------------------------|-------------------------------------------|
|------------------------------------------|-------------------------------------------|
|
|Gtr III
| H                 S  S  S  S  S  S  S  S    H                 S  S  S  S  S  S  S  S
|------------------18-18-18-18-18-18-18-18-|-17----------------17-17-17-17-17-17-17-17-|
|------------------15-15-15-15-15-15-15-15-|-13----------------13-13-13-13-13-13-13-13-|
|------------------------------------------|-------------------------------------------|
|------------------------------------------|-------------------------------------------|
|------------------------------------------|-------------------------------------------|
|------------------------------------------|-------------------------------------------|



 Gtr I
Rhy Fig 1

 Gtr II
   H.             S  E     E     E     E       H.             S  E     E     E     E
|-------------------------------------------|-------------------------------------------|
|-------------------------------------------|-------------------------------------------|
|-----------------8--8-----7----------------|-----------------7--7----------------------|
|-------------------------------10-----8----|--7----------------------10-----8-----7----|
|-10----------------------------------------|-------------------------------------------|
|-------------------------------------------|-------------------------------------------|
|
|Gtr III
|  H                 S  S  S  S  S  S  S  S    H                 S  S  S  S  S  S  S  S
|-18----------------18-18-18-18-18-18-18-18-|-17----------------17-17-17-17-17-17-17-17-|
|-15----------------15-15-15-15-15-15-15-15-|-13----------------13-13-13-13-13-13-13-13-|
|-------------------------------------------|-------------------------------------------|
|-------------------------------------------|-------------------------------------------|
|-------------------------------------------|-------------------------------------------|
|-------------------------------------------|-------------------------------------------|



VERSE PART 2:

 Gtr I
Rhy Fig 1

 Gtr II
    E     E     E     E     a  E  E     E     E       E E E E a  E E E E
|--------------------------------------------------|---------------------|
|---------------------------8/10--8----------------|----------8/10-8-----|
|---7-----------8-----7-----------------8-----7----|------8-7--------8-7-|
|---------8----------------------------------------|-10-7----------------|
|--------------------------------------------------|---------------------|
|--------------------------------------------------|---------------------|
|-Rhy Fig 2
|
|Gtr III
|   S  S  S  S  S  S  S  S  S  S  S  S  S  S  S  S
||-18-18-17-18-18-18-17-18-18-18-17-18-18-18-17-18-||
||o-----------------------------------------------o||
||-------------------------------------------------||
||-------------------------------------------------||
||o-----------------------------------------------o||
||-------------------------------------------------||
 |-Rhy Fig 3                         end Rhy Fig 3-|



 Gtr I
Rhy Fig 1

 Gtr II
   E E E E a  E E E E    E E E E a  E E E E
|---------------------|---------------------|
|----------8/10-8-----|----------8/10-8-----|
|------8-7--------8-7-|------8-7--------8-7-|
|-10-7----------------|-10-7----------------|
|---------------------|---------------------|
|---------------------|---------------------|
                              end Rhy Fig 2-|
 Gtr III
Rhy Fig 3 x2



CHORUS:

 Gtr IV
  S S E S S S S +H    T T E. +H.     S S E S S S S +H    T T Q.  S E E E E
|-------------------|--------------|-------------------|-------------------|
|-------------------|--------------|-------------------|-------------------|
|-------------------|--------------|-------------------|-8-8-6---8-7-5-3-2-|
|-5-5---7-7---8-(8)-|-9-9-7--(7)---|-5-5---7-7---8-(8)-|-8-8-6---8-7-5-3-2-|
|-5-5---7-7---8-(8)-|-9-9-7--(7)---|-5-5---7-7---8-(8)-|-6-6-4---6-5-3-1-0-|
|-5-5---7-7---8-(8)-|-9-9-7--(7)---|-5-5---7-7---8-(8)-|-------------------|



VERSE PART 1:
same as previous



VERSE PART 2:

 Gtr I
Rhy Fig 1

 Gtr II
Rhy Fig 2

 Gtr III
   e  e  e  e  S  S  S  S  S  S  S  S    S  S  e  e  e  e  e  S  S  e
|-18-17-18-17-18-18-17-17-18-18-17-17-|-18-18-17-18-17-18-17-18-18-17-|
|-15-13-15-13-15-15-13-13-15-15-13-13-|-15-15-13-15-13-15-13-15-15-13-|
|-------------------------------------|-------------------------------|
|-------------------------------------|-------------------------------|
|-------------------------------------|-------------------------------|
|-------------------------------------|-------------------------------|

   e  e  S  S  S  S  e  e  S  S  S  S    S  S  S  S  S  S  S  S  S  S  S  S  S  S  S  S
|-18-17-18-18-17-17-18-17-18-18-17-17-|-15-15-15-13-15-15-15-13-15-15-15-13-15-15-15-13-|
|-15-13-15-15-13-13-15-13-15-15-13-13-|-------------------------------------------------|
|-------------------------------------|-------------------------------------------------|
|-------------------------------------|-------------------------------------------------|
|-------------------------------------|-------------------------------------------------|
|-------------------------------------|-------------------------------------------------|



CHORUS:

                                              (55 bpm)
 Gtr I                          Gtr IV         Gtr IV
                                1.             2.
  E S T T S S S S +E  E   +Q     T T E. +H.     T T Q.  S E E E E
|---6-------8--------10--(10)--|--------------|-------------------|
|------------------------------|--------------|-------------------|
|------------------------------|--------------|-8-8-6---8-7-5-3-2-|
|-5---x-x-7---7-8-(8)----------|-9-9-7--(7)---|-8-8-6---8-7-5-3-2-|
|------------------------------|-9-9-7--(7)---|-6-6-4---6-5-3-1-0-|
|------------------------------|-9-9-7--(7)---|-------------------|



VERSE:

(50 bpm)
 Gtr I
    S T T S  S S T T S  S S T T S  S S T T S  S   S T T S  S S T T S  S S T T S  S S T T S  S
||----3-3----3---3-3----3---3-3----3---3-3----3-|---1-1----1---1-1----1---1-1----1---1-1----1--||
||----3-3----3---3-3----3---3-3----3---3-3----3-|---1-1----1---1-1----1---1-1----1---1-2----1--||
||*---3-3----3---3-3----3---3-3----3---3-3----3-|---2-2----2---2-2----2---2-2----2---2-2----2-*||
||*---5-5----5---5-5----5---5-5----5---5-5----5-|---3-3----3---3-3----3---3-3----3---3-3----3-*||
||----5-5----5---5-5----5---5-5----5---5-5----5-|---3-3----3---3-3----3---3-3----3---3-3----3--||
||----------------------------------------------|----------------------------------------------||
 |-Rhy Fig 4                                                                     end Rhy Fig 4-|
 |
 |Gtr II - Out
 |
 |Gtr III
 |  E     S  S E     S  S E     S  S E     S  S   E     S  S E     S  S E     S  S E     S  S
||----------18---------18---------18---------18-|---------17---------17---------17---------17--||
||----------------------------------------------|----------------------------------------------||
||*---------------------------------------------|---------------------------------------------*||
||*---------------------------------------------|---------------------------------------------*||
||----------------------------------------------|----------------------------------------------||
||----------------------------------------------|----------------------------------------------||
 |-Rhy Fig 5                                                                     end Rhy Fig 5-|



 Gtr I
Rhy Fig 1 x2

 Gtr II
 S S     E S S E S S  E  S  +T   T  T T S T T  S    S  +T   T  S S T T S S S  T  T  S  S S T T S S S
-----||------------------------------------------|----------------------------------------------------||
-----||------------------------------------------|----------------------------------------------------||
-7-8-||*-7-7-8-7-7-8-10-10-(10)-10-10-8-7-8-7----|-----------------------------------------------7-8-*||
-----||*--------------------------------------10-|-10-(10)-10-10-8-7b8r7-7-8-10b12r10-10-8-7b8r7-----*||
-----||------------------------------------------|----------------------------------------------------||
-----||------------------------------------------|----------------------------------------------------||

 Gtr III
Rhy Fig 5 x2



(60 bpm)
 Gtr I
Rhy Fig 1 x2

 Gtr II
    T T S S S T T S S S T T S S S T T S S S   T T S S S T T S S S T T S S S T T S S S
||------------------------------------------|------------------------------------------||
||------------------------------------------|------------------------------------------||
||*-3-2-0-0-0-3-2-0-0-0-3-2-0-0-0-3-2-0-0-0-|-5-3-2-2-2-5-3-2-2-2-5-3-2-2-2-5-3-2-2-2-*||
||*-----------------------------------------|-----------------------------------------*||
||------------------------------------------|------------------------------------------||
||------------------------------------------|------------------------------------------||

 Gtr III
Rhy Fig 5 x2



(65 bpm)
 Gtr I
Rhy Fig 1 x2

 Gtr II
Rhy Fig 2 2x (with Tremolo Picking)

 Gtr III
    T T S S S T T S S S T T S S S T T S S S   T T S S S T T S S S T T S S S T T S S S
||--6-5-3-3-3-6-5-3-3-3-6-5-3-3-3-6-5-3-3-3-|-8-6-5-5-5--8-6-5-5-5--8-6-5-5-5-8-6-5-5--||
||------------------------------------------|------------------------------------------||
||*-----------------------------------------|-----------------------------------------*||
||*-----------------------------------------|-----------------------------------------*||
||------------------------------------------|------------------------------------------||
||------------------------------------------|------------------------------------------||



Gtr I
Rhy Fig 1

 Gtr II
Rhy Fig 2 2x (lifted one octave)

(72 bpm)            (74 bpm)          (77 bpm)            (80 bpm)
 Gtr III (with Tremolo Picking)
   Q  Q a   Q  E  E   Q  Q  a  Q  E E    Q  Q  a  Q  E  E    Q  Q  Q  Q (bend gradually)
|-10-11-11/13-11-10-|-8-10-10/11-10-8-|-10-11-11/13-11-10-|-17-18-20-20b22-|
|-------------------|-----------------|-------------------|----------------|
|-------------------|-----------------|-------------------|----------------|
|-------------------|-----------------|-------------------|----------------|
|-------------------|-----------------|-------------------|----------------|
|-------------------|-----------------|-------------------|----------------|



CHORUS:

Gtr IV
                                                                       Tr
  S S E S S S S +H    T T E. +H.     S S E S S S S +H    T T E. +Q.    Q.
|-------------------|--------------|-------------------|------------------|
|-------------------|--------------|-------------------|------------------|
|-------------------|--------------|-------------------|-8-8-6--(6)-------|
|-5-5---7-7---8-(8)-|-9-9-7--(7)---|-5-5---7-7---8-(8)-|-8-8-6--(6)---12\-|
|-5-5---7-7---8-(8)-|-9-9-7--(7)---|-5-5---7-7---8-(8)-|-6-6-4--(4)---12\-|
|-5-5---7-7---8-(8)-|-9-9-7--(7)---|-5-5---7-7---8-(8)-|------------------|

                                                                  (55 bpm)
  S S E S S S S +H    T T E. +H.     S S E S S S S +H    T T Q.  S E E E E
|-------------------|--------------|-------------------|-------------------|
|-------------------|--------------|-------------------|-------------------|
|-------------------|--------------|-------------------|-8-8-6---8-7-5-3-2-|
|-5-5---7-7---8-(8)-|-9-9-7--(7)---|-5-5---7-7---8-(8)-|-8-8-6---8-7-5-3-2-|
|-5-5---7-7---8-(8)-|-9-9-7--(7)---|-5-5---7-7---8-(8)-|-6-6-4---6-5-3-1-0-|
|-5-5---7-7---8-(8)-|-9-9-7--(7)---|-5-5---7-7---8-(8)-|-------------------|

  |Tr---------------------|
  E E E E E E E E   E E E E Q   Q
|-----------------|------------------|
|-----------------|------------------|
|-----------------|------------------|
|-5-5-5-5-5-5-5-5-|-5-5-5-5-5---5\---|
|-5-5-5-5-5-5-5-5-|-5-5-5-5-5---5\---|
|-5-5-5-5-5-5-5-5-|-5-5-5-5-5---5\---|




- 23th /June /05
Just mail me at Maitinin@gmail.com with questions, comments and corrections!






**********************************************************************************************

    ___________________________________________________
   / System of a Down                                 /  I think this song is about the situation
  / This Cocaine Makes Me Feel Like I'm On This Song /  of a drug addict seen through his own
 / Mezmerize                                        /  intoxicated point of view. When he's high,
/__________________________________________________/  there's nothing wrong with him, it's the
                                                     world, though he sees that there actually is.
To avoid confession, he changes subject to something with a stepson. The killers are the drug
dealers that sell the drug, which makes the addicts happy, no bad feelings.



Tuning: Db Ab Db Gb Bb Eb
        C# G# C# F# A# D#
Gtr I - Electric, Distorted
Gtr II - Electric, Distorted


 Intro
 Q=112 bpm
 4/4
 Gtr I, II
  E E Q   Q   E E   E E Q   Q   E E   E E Q   Q   E E   E E Q   Q   E E
|-----------------|-----------------|-----------------|-----------------|
|-----------------|-----------------|-----------------|-----------------|
|-----------------|-----------------|-----------------|-----------------|
|-6-6---------4-7-|-6-6---------4-6-|-7-7---------9-7-|-6-6---------4-7-|
|-6-6---------4-7-|-6-6---------4-6-|-7-7---------9-7-|-6-6---------4-7-|
|-6-6---------4-7-|-6-6---------4-6-|-7-7---------9-7-|-6-6---------4-7-|



    E E S S S S a S S S S E E   E E S S S S a S S S S E E
||----------------------------|---------------------------|
||o---------------------------|---------------------------|
||------8-8-8-8-8b9r8-8-0-----|-----8-8-8-8-8b9r8-8-0-----|
||--6-6-----------------0-4-7-|-6-6-----------------0-4-6-|
||o-6-6-----------------0-4-7-|-6-6-----------------0-4-6-|
||--6-6-------------------4-7-|-6-6-------------------4-6-|
 |-Rhy Fig 1            ^
                        hit some screeching harmonics to
                        power up these noisy open strums



  E E S S S S a  S S S S E E   E E S S S S a S S S S E E 
|----------------------------|----------------------------||
|----------------------------|---------------------------o||
|-----9-9-9-9-9b10r9-9-0-----|-----8-8-8-8-8b9r8-8-0------||
|-7-7------------------0-9-7-|-6-6-----------------0-4-7--||
|-7-7------------------0-9-7-|-6-6-----------------0-4-7-o||
|-7-7--------------------9-7-|-6-6-------------------4-7--||
                                            end Rhy Fig 1-|



   S  S S  S S  S S S  S  S S  S S  S S S    S  S S  S S  S S S  S  S S  S S  S S S
|-----------------------------------------|-----------------------------------------|
|-----------------------------------------|-----------------------------------------|
|-----------------------------------------|-----------------------------------------|
|-10-10-9-10-9-10-9-9-10-10-9-10-9-10-9-9-|-10-10-9-10-9-10-9-9-10-10-9-10-9-10-9-9-|
|-10-10-9-10-9-10-9-9-10-10-9-10-9-10-9-9-|-10-10-9-10-9-10-9-9-10-10-9-10-9-10-9-9-|
|-10-10-9-10-9-10-9-9-10-10-9-10-9-10-9-9-|-10-10-9-10-9-10-9-9-10-10-9-10-9-10-9-9-|
|-Rhy Fig 2



   S  S  S  S  S  S  S  S  S  S  S  S  S  S  S  S    S  S  S  S  S  S  S  S  S  S  S  S  S  S  E
|-------------------------------------------------|-----------------------------------------------|
|-------------------------------------------------|-13-13-12-13-12-13-12-12-13-13-12-13-12-13-----|
|-12-12-11-12-11-12-11-11-12-12-11-12-11-12-11-11-|-12-12-11-12-11-12-11-11-12-12-11-12-11-12-----|
|-10-10--9-10--9-10--9--9-10-10--9-10--9-10--9--9-|-10-10--9-10--9-10--9--9-10-10--9-10--9-10-12\-|
|-10-10--9-10--9-10--9--9-10-10--9-10--9-10--9--9-|-10-10--9-10--9-10--9--9-10-10--9-10--9-10-12\-|
|-10-10--9-10--9-10--9--9-10-10--9-10--9-10--9--9-|-10-10--9-10--9-10--9--9-10-10--9-10--9-10-12\-|
                                                                                    end Rhy Fig 2-|




 1st Verse
      |-3-| |----3----| |----3----| |----3----|   |----3----| |----3----| |----3----| |----3----|
  E   S S S S S S S S S S S S S S S S S S S S S   S S S S S S S S S S S S S S S S S S S S S S S S
|-----------------------------------------------|-------------------------------------------------|
|-----------------------------------------------|-------------------------------------------------|
|-----8-8-8-8-8-8-8-8-8-8-8-8-8-8-8-8-8-8-8-8-8-|-8-8-8-8-8-8-8-8-8-8-8-8-8-8-8-8-8-8-8-8-8-8-8-8-|
|-6---------------------------------------------|-------------------------------------------------|
|-6---------------------------------------------|-------------------------------------------------|
|-6---------------------------------------------|-------------------------------------------------|



                                      |----3----| |----3----| |----3----| |----3----|
                                      PM--------------------------------------------|
  E.     S E.     S e   e   e   e     S S S S S S S S S S S S S S S S S S S S S S S S
|-----------------------------------|-------------------------------------------------|
|-----------------------------------|-------------------------------------------------|
|-----------------------------------|-------------------------------------------------|
|-7\-------7\-------7---7---7---7---|-------------------------------------------------|
|-7\-------7\-------7---7---7---7---|-------------------------------------------------|
|-7\-------7\-------7---7---7---7---|-6-6-6-6-6-6-6-6-6-6-6-6-6-6-6-6-6-6-6-6-6-6-6-6-|
 



 Chorus
Rhy Fig 2




 2nd Verse
Rhy Fig 1




 Chorus
similar to previous




 3rd Verse
      |-3-| |----3----| |----3----| |----3----|   |----3----| |----3----| |----3----| |----3----|
  E   S S S S S S S S S S S S S S S S S S S S S   S S S S S S S S S S S S S S S S S S S S S S S S
|-----------------------------------------------|-------------------------------------------------|
|-----------------------------------------------|-7-7-7-7-7-7s5-5-5-5-5-5s4-4-4-4-4-4s5-5-5-5-5-5-|
|-----8-8-8-8-8-8-8-8-8-8-8-8-8-8-8-8-8-8-8-8-8-|-8-8-8-8-8-8s6-6-6-6-6-6s5-5-5-5-5-5s6-6-6-6-6-6-|
|-6---------------------------------------------|-------------------------------------------------|
|-6---------------------------------------------|-------------------------------------------------|
|-6---------------------------------------------|-------------------------------------------------|



                                      |----3----| |----3----| |----3----| |----3----|
                                      PM--------------------------------------------|
  E.     S E.     S e   e   e   e     S S S S S S S S S S S S S S S S S S S S S S S S
|-----------------------------------|-------------------------------------------------|
|-----------------------------------|-------------------------------------------------|
|-----------------------------------|-------------------------------------------------|
|-7\-------7\-------7---7---7---7---|-------------------------------------------------|
|-7\-------7\-------7---7---7---7---|-------------------------------------------------|
|-7\-------7\-------7---7---7---7---|-6-6-6-6-6-6-6-6-6-6-6-6-6-6-6-6-6-6-6-6-6-6-6-6-|



  |----3----| |----3----| |----3----| |----3----|
  PM--------------------------------------------|  
  S S S S S S S S S S S S S S S S S S S S S S S S   E.     S E.     S e   e   e   e
|-------------------------------------------------|-----------------------------------|
|-------------------------------------------------|-----------------------------------|
|-------------------------------------------------|-----------------------------------|
|-------------------------------------------------|-7\-------7\-------7---7---7---7---|
|-9-9-9-9-9-9-7-7-7-7-7-7-6-6-6-6-6-6-7-7-7-6-6-6-|-7\-------7\-------7---7---7---7---|
|-------------------------------------------------|-7\-------7\-------7---7---7---7---|




 Chorus
similar to previous




 Outro
Rhy Fig 1, end on:

  E   Q.        H
|------------------------------|
|------------------------------|
|------------------------------|
|-6----------------------------|
|-6----------------------------|
|-6----------------------------|




- 6th /February /06
Just mail me at Maitinin@gmail.com with questions, comments and corrections!






**********************************************************************************************

    ______________________
   / System of a Down    /  I think this song is about how much crap is on the medias today.
  / Violent Pornography /  It's about all those false emotions people receive, when they see
 / Mezmerize           /  people on the television fuck, suck, cry and die, and about how
/_____________________/  everything in the medias seems so bright and wonderful.


Tuning: Db Ab Db Gb Bb Eb
        C# G# C# F# A# D#
Gtr I, II - Electric, Lightly Overdriven
Gtr III, IV - Electric, Distorted



 Intro:
 4/4
 Q=140 bpm
 Gtr I
                                        |-------3------|
  H       Q.    E   a W                 Q  Q  Q  Q  Q  Q    E E H.
|-----------------|-------------------|-------------------|-----------------|
|-----------------|-------------------|-------------------|-----------------|
|-----------------|-------------------|-------------------|-----------------|
|---------4-----5-|-5h7---------------|-8--7--5--8--7--5--|-4b5r4-----------|
|-----------------|-------------------|-------------------|-----------------|
|-0---------------|-------------------|-------------------|-----------------|


  W                 H       H         H       Q.    E   a W
|-----------------|-----------------|-----------------|-------------------|
|-----------------|-----------------|-----------------|-------------------|
|-----------------|-7---------------|-----------------|-------------------|
|-8---------------|---------8-------|---------4-----5-|-5h7---------------|
|-----------------|-----------------|-5---------------|-------------------|
|-----------------|-----------------|-0---------------|-------------------|


 Gtr I
  |-------3------|
  Q  Q  Q  Q  Q  Q    E E H.            W                 H       Q.    E
|-------------------|-----------------|-----------------|-----------------|
|-------------------|-----------------|-----------------|-3---------------|
|-------------------|-----------------|-----------------|-5---------------|
|-8--7--5--8--7--5--|-4b5r4-----------|-8---------------|---------8-----7-|
|-------------------|-----------------|-----------------|---------------5-|
|-------------------|-----------------|-----------------|-----------------|
|
|Gtr II
| W                   W                 W                 H       Q.    E
|-------------------|-----------------|-----------------|-----------------|
|-------------------|-----------------|-----------------|-----------------|
|-------------------|-----------------|-----------------|-----------------|
|-------------------|-----------------|-----------------|---------------7-|
|-------------------|-----------------|-----------------|---------------5-|
|-------------------|-----------------|-----------------|-----------------|




 1st Verse:
 Gtr I, II
                                                         1.
    E Q.    Q.    E   E Q.    Q.    E   E Q.    Q.    E   E Q.    Q.    E
||------------------|-----------------|-----------------|------------------||
||o-----------------|-----------------|-----------------|-----------------o||
||------------------|-----------------|-----------------|------------------||
||--8-------------8-|-9-------------9-|-8-------------8-|-7-------------7--||
||o-6-------------6-|-7-------------7-|-6-------------6-|-5-------------5-o||
||------------------|-----------------|-----------------|------------------||
...everybody, everybody, everybody livin' now...


 Gtr I, II
 2.
  E Q.     H
|-------------------||
|-------------------||
|-------------------||
|-7-----------------||
|-5-----------------||
|-------------------||
|
|Gtr III, IV
| H.           E. S
|-------------------||
|-------------------||
|-------------------||
|-------------------||
|-------------12\-0-||
|-------------12\-0-||




 Bridge:
 Gtr III, IV
  PM--|       PM----------|     PM------------|     PM|
  E   E   E   S S +S  S S S E   S S   +S  S S S E   S S E.    E.    E
|-----------------------------------|-----------------------------------|
|-----------------------------------|-----------------------------------|
|-----------------------------------|-----------------------------------|
|-----------------------------------|-----------------------------------|
|-0---0---0---0-0-(0)-0-0-0-0---0-0-|-(0)-0-0-0-0---0-0-1-----3-----4---|
|-0---0---0---0-0-(0)-0-0-0-0---0-0-|-(0)-0-0-0-0---0-0-1-----3-----4---|
...it's a non-stop disco...


  PM--|       PM----------|     PM------------|     PM|
  E   E   E   S S +S  S S S E   S S   +S  S S S E   S S E.    E.    E
|-----------------------------------|-----------------------------------|
|-----------------------------------|-----------------------------------|
|-----------------------------------|-----------------------------------|
|-----------------------------------|-----------------------------------|
|-0---0---0---0-0-(0)-0-0-0-0---0-0-|-(0)-0-0-0-0---0-0-4-----3-----1---|
|-0---0---0---0-0-(0)-0-0-0-0---0-0-|-(0)-0-0-0-0---0-0-4-----3-----1---|


  PM--|           PM----|           PM----|     PM|
  E   E   E   E   S S S S E   E     S S S S E   S S E.    E.    E
|---------------------------------|---------------------------------|
|---------------------------------|---------------------------------|
|---------------------------------|---------------------------------|
|---------------------------------|---------------------------------|
|-0---0---0-------0-0-0-0-0-------|-0-0-0-0-0---0-0-1-----3-----4---|
|-0---0---0-------0-0-0-0-0-------|-0-0-0-0-0---0-0-1-----3-----4---|


 Gtr III, IV
  PM----------------------------------------------|
  S S S S e   S S S S e   S S S S   e   S S S S S S E.    E.    E
|---------------------------------|---------------------------------|
|---------------------------------|---------------------------------|
|---------------------------------|---------------------------------|
|---------------------------------|---------------------------------|
|-0-0-0-0-0---0-0-0-0-0---0-0-0-0-|-0---0-0-0-0-0-0-4-----3---------|
|-0-0-0-0-0---0-0-0-0-0---0-0-0-0-|-0---0-0-0-0-0-0-4-----3---------|
|
|Gtr I, II
| W                                 H               Q.          E
|---------------------------------|---------------------------------|
|---------------------------------|---------------------------------|
|---------------------------------|---------------------------------|
|---------------------------------|-----------------------------7---|
|---------------------------------|-----------------------------5---|
|---------------------------------|---------------------------------|




 2nd Verse:
similar to 1st Verse




 Bridge:
similar to previous, but end on this instead:

 Gtr III, IV
  PM----------------------------------------------|
  S S S S e   S S S S e   S S S S   e   S S S S S S E.    E.    E
|---------------------------------|---------------------------------|
|---------------------------------|---------------------------------|
|---------------------------------|---------------------------------|
|---------------------------------|---------------------------------|
|-0-0-0-0-0---0-0-0-0-0---0-0-0-0-|-0---0-0-0-0-0-0-4-----3-----1---|
|-0-0-0-0-0---0-0-0-0-0---0-0-0-0-|-0---0-0-0-0-0-0-4-----3-----1---|




 Chorus:
 Gtr III, IV
  W                 W                 W                 W
|-----------------|-----------------|-----------------|-----------------|
|-----------------|-----------------|-----------------|-----------------|
|-----------------|-----------------|-----------------|-----------------|
|-0---------------|-4---------------|-5---------------|-7---------------|
|-0---------------|-4---------------|-5---------------|-7---------------|
|-0---------------|-4---------------|-5---------------|-7---------------|
|-Rhy Fig 1
...it's a violent pornography...


  W                  W                  W                 W
|-----------------|------------------|------------------|-----------------|
|-----------------|------------------|------------------|-----------------|
|-----------------|------------------|------------------|-----------------|
|-8---------------|-10---------------|-12---------------|-8---------------|
|-8---------------|-10---------------|-12---------------|-8---------------|
|-8---------------|-10---------------|-12---------------|-8---------------|
                                                            end Rhy Fig 1-|


      PM--------|       PM--------|       PM--------|       PM--------|
  Q   E E E E E E   Q   E E E E E E   Q   E E E E E E   Q   E E E E E E
|-----------------|-----------------|-----------------|-----------------|
|-----------------|-----------------|-----------------|-----------------|
|-----------------|-----------------|-----------------|-----------------|
|-0---------------|-4---------------|-5---------------|-7---------------|
|-0---0-0-0-0-0-0-|-4---4-4-4-4-4-4-|-5---5-5-5-5-5-5-|-7---7-7-7-7-7-7-|
|-0---0-0-0-0-0-0-|-4---4-4-4-4-4-4-|-5---5-5-5-5-5-5-|-7---7-7-7-7-7-7-|
|-Rhy Fig 2


 Gtr III, IV
      PM--------|         PM-------------|         PM-------------|       PM--------|
  Q   E E E E E E    Q    E  E  E  E  E  E    Q    E  E  E  E  E  E   Q   E E E E E E
|-----------------|------------------------|------------------------|-----------------|
|-----------------|------------------------|------------------------|-----------------|
|-----------------|------------------------|------------------------|-----------------|
|-8---------------|-10---------------------|-12---------------------|-8---------------|
|-8---8-8-8-8-8-8-|-10---10-10-10-10-10-10-|-12---12-12-12-12-12-12-|-8---8-8-8-8-8---|
|-8---8-8-8-8-8-8-|-10---10-10-10-10-10-10-|-12---12-12-12-12-12-12-|-8---8-8-8-8-8---|
|                                                                       end Rhy Fig 2-|
|
|Gtr I, II
| W                  W                        W                       H       Q.    E
|-----------------|------------------------|------------------------|-----------------|
|-----------------|------------------------|------------------------|-----------------|
|-----------------|------------------------|------------------------|-----------------|
|-----------------|------------------------|------------------------|---------------7-|
|-----------------|------------------------|------------------------|---------------5-|
|-----------------|------------------------|------------------------|-----------------|




 3rd Verse:
similar to 1st Verse




 Bridge:
similar to previous




 Chorus:
 Gtr I, II
Rhy Fig 1 x2


 Gtr III, IV
Rhy Fig 2
Rhy Fig 1




 Outro:
 Gtr I (Gtr III produces some lovely pick scraping)
                                          |-------3------|
    H       Q.    E   a W                 Q  Q  Q  Q  Q  Q    E E H.
||------------------|-------------------|-------------------|-----------------|
||o-----------------|-------------------|-------------------|-----------------|
||------------------|-------------------|-------------------|-----------------|
||----------4-----5-|-5h7---------------|-8--7--5--8--7--5--|-4b5r4-----------|
||o-----------------|-------------------|-------------------|-----------------|
||--0---------------|-------------------|-------------------|-----------------|
...can you say brainwashing?...


  W                 H       H           W
|-----------------|------------------||-----------------|
|-----------------|-----------------o||-----------------|
|-----------------|-7----------------||-----------------|
|-8---------------|---------8--------||-----------------|
|-----------------|-----------------o||-----------------|
|-----------------|------------------||-0---------------|




- 3rd /February /06
Just mail me at Maitinin@gmail.com with questions, comments and corrections!






**********************************************************************************************

    ____________________
   / System of a Down  /  I think that this song is simply about existentialism.
  / Question!         /  The red berries refer to Adam and Eve and wether why that
 / Mezmerize         /  is not a way of seeing things. Maybe being dead is just as
/___________________/  good as being alive, maybe the ghosts are very alike us.



                                               Em
                                         12 10 9 12 0 0


Gtr I (E A D G B E) - Steel Stringed Acoustic, Clean
Gtr II (C G C F A D) - Electric, Distorted
Gtr III (C G C F A D) - Electric, Distorted
Gtr IV (C G C F A D) - Electric, Clean

*Before even starting on the intro, you really need to catch the 9/16 feeling - and of
course build up your finger endurance, as it is an extremely challenging song to play.
Anyways, to get that feeling, imagine the 12/16 (6/8 or 3/4) feeling, and then forget
about the last three 16th parts. I think the 5/8 feeling is actually easier to catch!
After doing this tab, I've really realized that SOAD have really become clever musicians!


 Intro
 Q=90 bpm
 9/16                                                5/8
 Gtr I
    S S  S  S  S S  S  S  S  7x S S  S  E.     E.      +H         +E     +H         +E
||--0------------------------||-0--------------0^---|--(0)--------(0)-|--(0)--------(0)-|
||o---0----------0----------o||---0------------0^---|--(0)--------(0)-|--(0)--------(0)-|
||------12----12---12----12--||-----12--------12^---|-(12)-------(12)-|-(12)-------(12)-|
||---------10---------10-----||--------10------9^---|--(9)--------(9)-|--(9)--------(9)-|
||o-------------------------o||---------------10^---|-(10)-------(10)-|-(10)-------(10)-|
||---------------------------||---------------12^---|-(12)-------(12)-|-(12)-------(12)-|



 5/8
 Gtr I
 |-Rhy Fig 1 end Rhy Fig 1-|
     Em                        Em
     E    S E   S E   E        E      S E   S E   E
     |    | |   | |   |        |      | |   | |   |
     /    / /   / /   /        /      / /   / /   /

 Gtr II, III
                               PM-------------------|
     E    S E   S S S S S  4x  S T T  S S S S S S S S  4x
||-------------------------||--------------------------||
||o-----------------------o||o------------------------o||
||-------------------------||--------------------------||
||-------------------------||--------------------------||
||o--4---11-9---7-7-9-6-7-o||o-4-4-4-11-9-9-7-7-9-6-7-o||
||---4---11-9---7-7-9-6-7--||--4-4-4-11-9-9-7-7-9-6-7--||
 |-Rhy Fig 2 end Rhy Fig 2-||-Rhy Fig 3  end Rhy Fig 3-|



 9/16
 Gtr I
  S S  S  S  S S  S  S  S    S  S  S  S  S S  S  S  S
|-0-----------------------|--0------------------------|
|---0----------0----------|-----0----------0----------|
|-----12----12---12----12-|-------12----12---12----12-|
|--------10---------10----|----------10---------10----|
|-------------------------|---------------------------|
|-------------------------|---------------------------|
|
|Gtr II, III
| W                         +W
|-------------------------|---------------------------|
|-------------------------|---------------------------|
|-------------------------|---------------------------|
|-4-----------------------|-(4)-----------------------|
|-4-----------------------|-(4)-----------------------|
|-4-----------------------|-(4)-----------------------|




 1st Verse:
 9/16
 Gtr I 
    S S  S  S  S S  S  S  S   S S  S  S  S S  S  S  S   S S  S  S  S S  S  S  S
||--0-----------------------|-0-----------------------|-0-----------------------|
||o---0----------0----------|---0----------0----------|---0----------0----------|
||------12----12---12----12-|-----12----12---12----12-|-----12----12---12----12-|
||---------10---------10----|--------10---------10----|--------10---------10----|
||o-------------------------|-------------------------|-------------------------|
||--------------------------|-------------------------|-------------------------|
|
|Gtr IV
|   PM----------------------------------------------|
|   S S  S  S  S S  S  S  S   S S  S  S  S S  S  S  S   E.      E.      E.
||--------------------------|-------------------------|-------------------------|
||o-------------------------|-------------------------|-------------------------|
||--------------------------|-------------------------|-------------------------|
||-------2--4--2----2-------|------2--4--2----2-------|-------------------------|
||o---4----------4-----4--5-|---4----------4-----4--5-|-------------------------|
||--4-----------------------|-4-----------------------|-------------------------|
...sweet berries ready for two...


                           1.                            2.
                           6/8                           6/8
  S S  S  S  S S  S  S  S   S S S  S S S  S S S  S S S     S S S  S S S  S S S  S S S
|-0-----------------------|--------0-------------0-----||---------0-------------0------||
|---0----------0----------|-----0----0--------0----0---||o-----0----0--------0----0---o||
|-----12----12---12----12-|---5--------5----5--------5-||----5--------5----5--------5--||
|--------10---------10----|-7-------------7------------||--7-------------7-------------||
|-------------------------|----------------------------||o----------------------------o||
|-------------------------|----------------------------||------------------------------||
|
| PM--------------------|
| S S  S  S  S S  S  S  S   S S S  S S S  S S S  S S S     S S S  S S S  S S S  S S S
|-------------------------|----------------------------||------------------------------||
|-------------------------|----------------------------||o----------------------------o||
|-------------------------|----------------------------||------------------------------||
|------2--4--2----2-------|----------------------------||------------------------------||
|---4----------4-----4--5-|-2-----s9-----s2-----s9-----||o-2-----s9-----s2-----s9-----o||
|-4-----------------------|----------------------------||------------------------------||




 Pre-Chorus:
 6/8
 Gtr I
  Em               Em               Em               Em
  E.  E.  E.  E.   E.  E.  E.  E.   E.  E.  E.  E.   E.  E.  E.  E.
  |   |   |   |    |   |   |   |    |   |   |   |    |   |   |   |
  /   /   /   /    /   /   /   /    /   /   /   /    /   /   /   /
|----------------|----------------|----------------|----------------|
...dreaming the night...




 Chorus:
 6/8
 Gtr II, III
    PM----|     PM----|       PM----|     PM----|       PM----|     PM----|
    E   S S S S E   S S S S   E   S S S S E   S S S S   E   S S S S E   S S S S
||--------------------------|-------------------------|-------------------------|
||o-------------------------|-------------------------|-------------------------|
||--------------------------|-------------------------|-------------------------|
||----------6p4---------6p4-|---------6p4---------6p4-|---------6p4---------6p4-|
||o-4---4-4-----4---4-4-----|-4---4-4-----4---4-4-----|-4---4-4-----4---4-4-----|
||--4---4-4-----4---4-4-----|-4---4-4-----4---4-4-----|-4---4-4-----4---4-4-----|
...do we, do we know...



      PM     PM     PM     PM
  E   S  S S S  S S S  S S S     S S S S S S S S S S S S
|-----------------------------||-------------------------|
|----------------------------o||-------------------------|
|-----------------------------||-------------------------|
|-9-----11p9---12p9---11p9----||-9-9-9-9-9-9-9-9-9-9-9-9-|
|-9--------------------------o||-9-9-9-9-9-9-9-9-9-9-9-9-|
|-9---9------9------9------9--||-9-9-9-9-9-9-9-9-9-9-9-9-|



Rhy Fig 2 x2 + Rhy Fig 1 x2




 2nd Verse:
similar to previous




 Pre-Chorus:
similar to previous




 Chorus:
similar to previous




 Bridge:
 Gtr II, III
 6/8
  W                         +W
|-------------------------|---------------------------|
|-------------------------|---------------------------|
|-------------------------|---------------------------|
|-4-----------------------|-(4)-----------------------|
|-4-----------------------|-(4)-----------------------|
|-4-----------------------|-(4)-----------------------|



Rhy Fig 2 x4 + Rhy Fig 1 x4



Rhy Fig 3 x4 + Rhy Fig 1 x4



    T T T T  T  T T T T T T T T T T T T T T T  4x
||---------------------------------------------||
||o-------------------------------------------o||
||---------------------------------------------||
||---------------------------------------------||
||o-------------------------------------------o||
||--4-4-4-4-11-11-9-9-9-9-7-7-7-7-9-9-6-6-7-7--||



Rhy Fig 2 x4 + Rhy Fig 1 x4



 4/4
    S   T T T T S   S   T T T T S   S   T T T T S   S   T T T T S
|-----------------------------------------------------------------|
|-----------------------------------------------------------------|
|-----------------------------------------------------------------|
|-----------------------------------------------------------------|
|-----------------------------------------------------------------|
|-4---4-4-4-4-0---4---4-4-4-4-0---4---4-4-4-4-0---4---4-4-4-4-0---|





 Final Chorus:
 4/4
    S   T T T T S   S   T T T T S   S   T T T T S   S   T T T T S
||------------------------------------------------------------------|
||o-----------------------------------------------------------------|
||------------------------------------------------------------------|
||------------------------------------------------------------------|
||o-----------------------------------------------------------------|
||--4---4-4-4-4-0---4---4-4-4-4-0---4---4-4-4-4-0---4---4-4-4-4-0---|


    S   T T T T S   S   T T T T S   S   T T T T S   S   T T T T S
|-----------------------------------------------------------------|
|-----------------------------------------------------------------|
|-----------------------------------------------------------------|
|-----------------------------------------------------------------|
|-----------------------------------------------------------------|
|-4---4-4-4-4-0---4---4-4-4-4-0---4---4-4-4-4-0---4---4-4-4-4-0---|


  S   T T T T S   S   T T T T S   S   T T T T S   S   T T T T S
|-----------------------------------------------------------------|
|-----------------------------------------------------------------|
|-----------------------------------------------------------------|
|-----------------------------------------------------------------|
|-----------------------------------------------------------------|
|-4---4-4-4-4-0---4---4-4-4-4-0---4---4-4-4-4-0---4---4-4-4-4-0---|


  T T T T T T T T T T T T T T T T T T T T T T T T T T T T T T T T
|------------------------------------------------------------------||
|-----------------------------------------------------------------o||
|------------------------------------------------------------------||
|------------------------------------------------------------------||
|-----------------------------------------------------------------o||
|-9-9-9-9-9-9-9-9-9-9-9-9-9-9-9-9-9-9-9-9-9-9-9-9-9-9-9-9-9-9-9-9--||


  T T T T T T T T T T T T T T T T T T T T T T T T T T T T T T T T
|-----------------------------------------------------------------|
|-----------------------------------------------------------------|
|-----------------------------------------------------------------|
|---------------------------------9-9-9-9-9-9-9-9-9-9-9-9-9-9-9-9-|
|---------------------------------9-9-9-9-9-9-9-9-9-9-9-9-9-9-9-9-|
|-9-9-9-9-9-9-9-9-9-9-9-9-9-9-9-9-9-9-9-9-9-9-9-9-9-9-9-9-9-9-9-9-|




 Outro:
Rhy Fig 2 x4 + + Rhy Fig 1 x4



 9/16
 Gtr I
  S S  S  S  S S  S  S  S      S  S  S  S  S S  S  S  S
|-0-----------------------||---0-------------------------||
|---0----------0----------||o-----0----------0----------o||
|-----12----12---12----12-||--------12----12---12----12--||
|--------10---------10----||-----------10---------10-----||
|-------------------------||o---------------------------o||
|-------------------------||-----------------------------||
|
|Gtr II, III
| W                           +W
|-------------------------||-----------------------------||
|-------------------------||o---------------------------o||
|-------------------------||-----------------------------||
|-4-----------------------||--(4)------------------------||
|-4-----------------------||o-(4)-----------------------o||
|-4-----------------------||--(4)------------------------||



 9/16                  5/8
 Gtr I
  S S  S  E.     E.      +H         +E
|-0--------------0^---|--(0)--------(0)-|
|---0------------0^---|--(0)--------(0)-|
|-----12--------12^---|-(12)-------(12)-|
|--------10------9^---|--(9)--------(9)-|
|---------------10^---|-(10)-------(10)-|
|---------------12^---|-(12)-------(12)-|



Rhy Fig 2 x2 + Rhy Fig 1 x2




- 5th /February /06
Just mail me at Maitinin@gmail.com with questions, comments and corrections!






**********************************************************************************************

    ____________________
   / System of a Down  /  In short I think this song is against human suffering in
  / Sad Statue        /  general. It's about how we forget to simply love and
 / Mezmerize         /  forgive our enemies; instead we're dropping bombs on them
/___________________/  to only justify conflicts that could have been forgotten.


Tuning: Db Ab Db Gb Bb Eb
        C# G# C# F# A# D#
Gtr I - Electric, Clean
Gtr II, III - Electric, Distorted
Gtr IV - Electric, Clean /w Tremolo effect


 Intro
 Q=170 bpm
 4/4
 Gtr I
    S S S S S S S S S S S S Q        4x
||-----------------------------------||
||o---------------------------------o||
||-----------------------------------||
||-----------------------------------||
||o-5p0-5p0-5p0-5p0-5p0-5p0-6-------o||
||-----------------------------------||
   (no, there're no hammer on's)




 Main Riff
 Gtr II, III
            PM--------------------|
    Q       S S S S S S S S S S S S   S S S S S S S S S S S S Q
||----------------------------------|---------------------------------|
||o---------------------------------|---------------------------------|
||--7-------------------------------|---------------------------------|
||--7-------------------------------|---------------------------------|
||o-5-------------------------------|-5p0-5p0-5p0-5p0-5p0-5p0-6-------|
||----------0-0-0-0-0-0-0-0-0-0-0-0-|---------------------------------|


 1.
          PM------------------------------|
  Q       S S S S S S S S S S S S   S S S S Q        Q       Q
|---------------------------------|-----------------------------------||
|---------------------------------|----------------------------------o||
|-7-------------------------------|---------8-------10-------8--------||
|-7-------------------------------|---------8-------10-------8--------||
|-5-------------------------------|---------6--------8-------6-------o||
|---------0-0-0-0-0-0-0-0-0-0-0-0-|-0-0-0-0---------------------------||


 2.
          PM------------|             PM               PM
  Q       S S S S S S S S  Q          E   E    E   E   E   E    E   E
|-----------------------------------|-----------------------------------||
|-----------------------------------|-----------------------------------||
|-7---------------------------------|-----8---10---8-------8---10---8---||
|-7---------------------------------|-----8---10---8-------8---10---8---||
|-5-----------------------12\-------|-0---6----8---6---0---6----8---6---||
|---------0-0-0-0-0-0-0-0-12\-------|-0----------------0----------------||



            PM------------------|
    Q       E   E   E   E   E   E     S S S S S S S S S S S S Q
||----------------------------------|---------------------------------|
||o---------------------------------|---------------------------------|
||--7-------------------------------|---------------------------------|
||--7-------------------------------|---------------------------------|
||o-5-------0---0---0---0---0---0---|-5p0-5p0-5p0-5p0-5p0-5p0-6-------|
||----------0---0---0---0---0---0---|---------------------------------|


 1.
          PM------------------|
  Q       E   E   E   E   E   E     E   E   Q        Q       Q
|---------------------------------|-----------------------------------||
|---------------------------------|----------------------------------o||
|-7-------------------------------|---------8-------10-------8--------||
|-7-------------------------------|---------8-------10-------8--------||
|-5-------0---0---0---0---0---0---|-0---0---6--------8-------6-------o||
|---------0---0---0---0---0---0---|-0---0-----------------------------||


 2.
          PM----------|               PM               PM
  Q       E   E   E   E    Q          E   E    E   E   E   E    E   E
|-----------------------------------|-----------------------------------||
|-----------------------------------|-----------------------------------||
|-7---------------------------------|-----8---10---8-------8---10---8---||
|-7---------------------------------|-----8---10---8-------8---10---8---||
|-5-------0---0---0---0---12\-------|-0---6----8---6---0---6----8---6---||
|---------0---0---0---0---12\-------|-0----------------0----------------||




 1st Verse
 Gtr II
    PM----------------------------|
    E   E    E   E   E   E    E   E    4x
||-------------------------------------||
||o-----------------------------------o||
||-------------------------------------||
||-------------------------------------||
||o-----6----8---6-------6----8---6---o||
||--0----------------0-----------------||
|
|Gtr III
|   PM----------------------------|
|   E   E    E   E   E   E    E   E    4x
||-------------------------------------||
||o-----------------------------------o||
||-------------------------------------||
||------8---10---8-------8---10---8----||
||o-----------------------------------o||
||--0----------------0-----------------||



 Gtr II, III
    E   E   E   E   E   E   E   E    4x
||-----------------------------------||
||o---------------------------------o||
||--7---7---7---7---7---7---7---8----||
||--7---7---7---7---7---7---7---8----||
||o-5---5---5---5---5---5---5---6---o||
||-----------------------------------||




 2nd Verse
similar to 1st Verse




 Chorus
 Gtr IV
  W                 +W                  W                 +W
|-----------------|-------------------|-----------------|-------------------|
|-----------------|-------------------|-----------------|-------------------|
|-----------------|-------------------|-----------------|-------------------|
|-1---------------|-(1)---------------|-5---------------|-(5)---------------|
|-1---------------|-(1)---------------|-5---------------|-(5)---------------|
|-1---------------|-(1)---------------|-5---------------|-(5)---------------|


  W                 +W                  W                 +W
|-----------------|-------------------|-----------------|-------------------|
|-----------------|-------------------|-----------------|-------------------|
|-----------------|-------------------|-----------------|-------------------|
|-0---------------|-(0)---------------|-3---------------|-(3)---------------|
|-0---------------|-(0)---------------|-3---------------|-(3)---------------|
|-0---------------|-(0)---------------|-3---------------|-(3)---------------|




 Distorted Chorus
 Gtr II, III, IV
  W                 +W                  W                 +W
|-----------------|-------------------|-----------------|-------------------|
|-----------------|-------------------|-----------------|-------------------|
|-----------------|-------------------|-----------------|-------------------|
|-1---------------|-(1)---------------|-5---------------|-(5)---------------|
|-1---------------|-(1)---------------|-5---------------|-(5)---------------|
|-1---------------|-(1)---------------|-5---------------|-(5)---------------|



  W                 +W                  W                 +W
|-----------------|-------------------|-----------------|-------------------|
|-----------------|-------------------|-----------------|-------------------|
|-----------------|-------------------|-----------------|-------------------|
|-0---------------|-(0)---------------|-3---------------|-(3)---------------|
|-0---------------|-(0)---------------|-3---------------|-(3)---------------|
|-0---------------|-(0)---------------|-3---------------|-(3)---------------|




 3rd Verse
similar to 1st Verse




 4th Verse
similar to 1st Verse




 Chorus
similar to previous




 Interlude
(half time count)
 Gtr I
  Dmaj7(no5)      D(no5)            Gb5             G(b5)
  E   E   E   E   E   E   E   E     E   E   E   E   E   E   E   E
|---------------------------------|---------------------------------|
|---------------------------------|---------------------------------|
|---------7-------8-------7-------|---------7-------6-------7-------|
|-----5-------5-------5-----------|---------------------5-------5---|
|-6---------------------------6---|-----5-------5-------------------|
|---------------------------------|-5-------------------------------|



  Db5             Db#5              Dmaj7(no5)      D7(no5)
  E   E   E   E   E   E   E   E     E   E   E   E   E   E   E   E
|---------------------------------|---------------------------------|
|---------------------------------|---------------------------------|
|---------------------------------|---------7-------6-------7-------|
|---------7-------8-------7-------|-----5-------5-------5-------5---|
|-----5-------5-------5-------5---|-6-------------------------------|
|-0-------------------------------|---------------------------------|



 Gtr I
  E   E   E   E   E   E   E   E     E   E   E   E   E   E   E   E
|---------------------------------|---------------------------------|
|---------------------------------|---------------------------------|
|---------7-------8-------7-------|---------7-------6-------7-------|
|-----5-------5-------5-----------|---------------------5-------5---|
|-6---------------------------6---|-----5-------5-------------------|
|---------------------------------|-5-------------------------------|
|
|Gtr II, III
| Q       Q       Q       Q         Q       Q       Q       Q
|---------------------------------|---------------------------------|
|---------------------------------|---------------------------------|
|-8-------8-------8-------8-------|---------------------------------|
|-8-------8-------8-------8-------|-5-------5-------5-------5-------|
|-6-------6-------6-------6-------|-5-------5-------5-------5-------|
|---------------------------------|-5-------5-------5-------5-------|



  E   E   E   E   E   E   E   E     E   E   E   E   E   E   E   E
|---------------------------------|---------------------------------|
|---------------------------------|---------------------------------|
|---------------------------------|---------7-------6-------7-------|
|---------7-------8-------7-------|-----5-------5-------5-------5---|
|-----5-------5-------5-------5---|-6-------------------------------|
|-0-------------------------------|---------------------------------|
|
| Q       Q       Q       Q         Q       Q       Q       Q
|---------------------------------|---------------------------------|
|---------------------------------|---------------------------------|
|-7-------7-------7-------7-------|-8-------8-------8-------8-------|
|-7-------7-------7-------7-------|-8-------8-------8-------8-------|
|-5-------5-------5-------5-------|-6-------6-------6-------6-------|
|---------------------------------|---------------------------------|




 Main Riff
similar to previous




 Distorted Chorus
similar to previous




 Final Chorus
 Gtr II, III, IV
  H       H         H       H         H       H         H       H
|-----------------|-----------------|-----------------|-----------------|
|-----------------|-----------------|-----------------|-----------------|
|-----------------|-----------------|-----------------|-----------------|
|-1-------1-------|-1-------1-------|-5-------5-------|-5-------5-------|
|-1-------1-------|-1-------1-------|-5-------5-------|-5-------5-------|
|-1-------1-------|-1-------1-------|-5-------5-------|-5-------5-------|



  H       H         H       H           H       H         H       H
|-----------------|-----------------||------------------|------------------||
|-----------------|-----------------||o-----------------|-----------------o||
|-----------------|-----------------||------------------|------------------||
|-0-------0-------|-0-------0-------||--3-------3-------|-3-------3--------||
|-0-------0-------|-0-------0-------||o-3-------3-------|-3-------3-------o||
|-0-------0-------|-0-------0-------||--3-------3-------|-3-------3--------||




 Outro:
 Gtr II, III
            PM------------------|
    Q       E   E   E   E   E   E     S S S S S S S S S S S S Q
||----------------------------------|---------------------------------|
||o---------------------------------|---------------------------------|
||--7-------------------------------|---------------------------------|
||--7-------------------------------|---------------------------------|
||o-5-------0---0---0---0---0---0---|-5p0-5p0-5p0-5p0-5p0-5p0-6-------|
||----------0---0---0---0---0---0---|---------------------------------|


 1.
          PM------------------|
  Q       E   E   E   E   E   E     E   E   Q        Q       Q
|---------------------------------|-----------------------------------||
|---------------------------------|----------------------------------o||
|-7-------------------------------|---------8-------10-------8--------||
|-7-------------------------------|---------8-------10-------8--------||
|-5-------0---0---0---0---0---0---|-0---0---6--------8-------6-------o||
|---------0---0---0---0---0---0---|-0---0-----------------------------||


 2.
          PM----------|               PM               PM
  Q       E   E   E   E    Q          E   E    E   E   E   E    E   E
|-----------------------------------|-----------------------------------||
|-----------------------------------|-----------------------------------||
|-7---------------------------------|-----8---10---8-------8---10---8---||
|-7---------------------------------|-----8---10---8-------8---10---8---||
|-5-------0---0---0---0---12\-------|-0---6----8---6---0---6----8---6---||
|---------0---0---0---0---12\-------|-0----------------0----------------||



  Q       H.
|---------------------------------|
|---------------------------------|
|-7-------------------------------|
|-7-------------------------------|
|-5-------------------------------|
|---------------------------------|




- 5th /February /06
Just mail me at Maitinin@gmail.com with questions, comments and corrections!






**********************************************************************************************

    ________________________
   / System of a Down      /  This song is about a weird experience Daron, a big
  / Old School Hollywood  /  baseball fan, once had as he was playing the 45th
 / Mezmerize             /  Annual Hollywood Stars Baseball Game at Dodgers Stadium.
/_______________________/  As it was only a show off match, Daron didn't take it
                          rather serious, though the others did. It's about the
feeling of misplacement he had. I think it's a funny story.



Tuning: Db Ab Db Gb Bb Eb
        C# G# C# F# A# D#
Gtr I - Electric, Clean w/ some phaser-flanger-wah-wah effect
Gtr II, III - Electric, Distorted


 Intro
 Q=160 bpm
 4/4
 Bass part arranged for Gtr I
  a  E Q.    +H          E Q.    +H          E Q.    +H          E Q.    +H
|----------------------|-------------------|-------------------|-------------------|
|----------------------|-------------------|-------------------|-------------------|
|----------------------|-------------------|-------------------|-------------------|
|-5\-------------------|-------------------|-------------------|-------------------|
|----------------------|-------------------|-------------------|-------------------|
|----1s5-----(5)-------|-1s5-----(5)-------|-1s5-----(5)-------|-1s5-----(5)-------|



 Gtr I
    E   E   E   E   E   E   E   E    8x
||-----------------------------------||
||o---------------------------------o||
||-----------------------------------||  Gtr II produces some lovely
||--0---5---7---5---8---5---7---5----||  pick scrape on last repeat
||o---------------------------------o||
||-----------------------------------||
 |-Rhy Fig 1           end Rhy Fig 1-|



w/Rhy Fig 1 x8
 Gtr II, III
                                         PM--------------------------|
    E   E   E   E   E   E   E   E    4x  E   E   E   E   E   E   E   E    4x
||-----------------------------------||-----------------------------------||
||o---------------------------------o||o---------------------------------o||
||-----------------------------------||-----------------------------------||
||--0---5---7---5---8---5---7---5----||--0---5---7---5---8---5---7---5----||
||o-0---5---7---5---8---5---7---5---o||o-0---5---7---5---8---5---7---5---o||
||--0---5---7---5---8---5---7---5----||--0---5---7---5---8---5---7---5----||




 1st Verse
 Gtr I
    W                                 +W
||----------------------------------|-----------------------------------|
||o---------------------------------|-----------------------------------|
||--5-------------------------------|-(5)-------------------------------|
||----------------------------------|-----------------------------------|
||o---------------------------------|-----------------------------------|
||----------------------------------|-----------------------------------|
|
|Gtr II
|   PM--------------------------------------------------------------|
|   E   E   E   E   E   E   E   E      E    E   E   E   E   E   E   E
||----------------------------------|-----------------------------------|
||o---------------------------------|-----------------------------------|
||--0---5---7---5---8---5---7---5---|--0----5---7---5---8---5---7---5---|
||----------------------------------|-----------------------------------|
||o---------------------------------|-----------------------------------|
||----------------------------------|-----------------------------------|
 |-Rhy Fig 2                                              end Rhy Fig 2-|



w/Rhy Fig 1 2x
  PM------------------------------------------------------------|
  E   E   E   E   E   E   E   E     E   E   E   E   E   E   E   E
|---------------------------------|----------------------------------||
|---------------------------------|---------------------------------o||
|---------------------------------|----------------------------------||
|-0---5---7---5---8---5---7---5---|-0---5---7---5---8---5---7---5----||
|---------------------------------|---------------------------------o||
|---------------------------------|----------------------------------||
|-Rhy Fig 3                                            end Rhy Fig 3-|



 Pre-Chorus
 Gtr I
  W                                 W
|---------------------------------|---------------------------------|
|---------------------------------|---------------------------------|
|-8-------------------------------|-7-------------------------------|
|---------------------------------|---------------------------------|
|---------------------------------|---------------------------------|
|---------------------------------|---------------------------------|
|
|Gtr II, III
| PM------------------------------------------------------------|
| E   E   E   E   E   E   E   E     E   E   E   E   E   E   E   E
|---------------------------------|---------------------------------|
|---------------------------------|---------------------------------|
|---------------------------------|---------------------------------|
|-8---8---8---8---8---8---8---8---|-7---7---7---7---7---7---7---7---|
|-6---6---6---6---6---6---6---6---|-5---5---5---5---5---5---5---5---|
|---------------------------------|---------------------------------|


 
  W                                  W
|---------------------------------|-----------------------------------------|
|---------------------------------|-----------------------------------------|
|-8-------------------------------|-10--------------------------------------|
|---------------------------------|-----------------------------------------|
|---------------------------------|-----------------------------------------|
|---------------------------------|-----------------------------------------|
|
| PM--------------------------------------------------------------------|
| E   E   E   E   E   E   E   E      E    E    E    E    E    E    E    E
|---------------------------------|-----------------------------------------|
|---------------------------------|-----------------------------------------|
|---------------------------------|-----------------------------------------|
|-8---8---8---8---8---8---8---8---|-10---10---10---10---10---10---10---10---|
|-6---6---6---6---6---6---6---6---|--8----8----8----8----8----8----8----8---|
|---------------------------------|-----------------------------------------|



   W                                  +W
|----------------------------------|------------------------------------|
|----------------------------------|------------------------------------|
|-12-------------------------------|-(12)-------------------------------|
|-13-------------------------------|-(13)-------------------------------|
|----------------------------------|------------------------------------|
|----------------------------------|------------------------------------|
|
|  PM---------------------------------------------------------------|
|  E   E   E   E   E   E   E   E       E    E   E   E   E   E   E   E
|----------------------------------|------------------------------------|
|----------------------------------|------------------------------------|
|----------------------------------|------------------------------------|
|--8---8---8---8---8---8---8---8---|---7----7---7---7---7---7---7---7---|
|--6---6---6---6---6---6---6---6---|---5----5---5---5---5---5---5---5---|
|----------------------------------|------------------------------------|



   +H.                       Q           W
|-------------------------------------|-----------------------------------------|
|---------------------------15--------|-13--------------------------------------|
|-(12)--------------------------------|-----------------------------------------|
|-(13)--------------------------------|-10--------------------------------------|
|-------------------------------------|-----------------------------------------|
|-------------------------------------|-----------------------------------------|
|
|   PM----------------------------------------------------------------------|
|   E    E   E   E   E   E    E   E      E    E    E    E    E    E    E    E
|-------------------------------------|-----------------------------------------|
|-------------------------------------|-----------------------------------------|
|-------------------------------------|-----------------------------------------|
|---8----8---8---8---8---8----8---8---|-10---10---10---10---10---10---10---10---|
|---6----6---6---6---6---6----6---6---|--8----8----8----8----8----8----8----8---|
|-------------------------------------|-----------------------------------------|



   W
|-----------------------------------------|
|-13--------------------------------------|
|-----------------------------------------|
|-----------------------------------------|
|-----------------------------------------|
|-----------------------------------------|
|
|  PM---------------------------------|
|  E    E    E    E    E    E    E    E
|-----------------------------------------|
|-----------------------------------------|
|-----------------------------------------|
|-10---10---10---10---10---10---10---10---|
|--8----8----8----8----8----8----8----8---|
|-----------------------------------------|




 Chorus:
 Gtr II, III
    E   E   E   E   E   E   E   E     E   E   E   E   E   E   E   E
||----------------------------------|---------------------------------|
||o---------------------------------|---------------------------------|
||----------------------------------|---------------------------------|
||--0---5---7---5---8---5---7---5---|-0---5---7---5---8---7---5---3---|
||o-0---5---7---5---8---5---7---5---|-0---5---7---5---8---7---5---3---|
||--0---5---7---5---8---5---7---5---|-0---5---7---5---8---7---5---3---|


  Q       Q       a Q       Q         Q       Q       Q       Q
|-----------------------------------|----------------------------------||
|-----------------------------------|---------------------------------o||
|-----------------------------------|----------------------------------||
|-1-------1-------------------------|-0-------0-------4-------7--------||
|-1-------1-------3s5-------3-------|-0-------0-------4-------7-------o||
|-1-------1-------------------------|-0-------0-------4-------7--------||




 2nd Verse
w/Rhy Fig 2
 Gtr I
   W                                  +W
|----------------------------------|------------------------------------|
|-13-------------------------------|-(13)-------------------------------|
|----------------------------------|------------------------------------|
|----------------------------------|------------------------------------|
|----------------------------------|------------------------------------|
|----------------------------------|------------------------------------|



w/Rhy Fig 3
   W                                  +W
|----------------------------------|------------------------------------|
|----------------------------------|------------------------------------|
|-12-------------------------------|-(12)-------------------------------|
|----------------------------------|------------------------------------|
|----------------------------------|------------------------------------|
|----------------------------------|------------------------------------|



w/Rhy Fig 2
   +H.                         Q         +W
|-------------------------------------|------------------------------------|
|-----------------------------13------|-(13)-------------------------------|
|-(12)--------------------------------|------------------------------------|
|-------------------------------------|------------------------------------|
|-------------------------------------|------------------------------------|
|-------------------------------------|------------------------------------|



w/Rhy Fig 3
   W                                  +W
|----------------------------------|------------------------------------|
|----------------------------------|------------------------------------|
|-12-------------------------------|-(12)-------------------------------|
|----------------------------------|------------------------------------|
|----------------------------------|------------------------------------|
|----------------------------------|------------------------------------|




 Pre-Chorus
similar to previous, and add this:

 Gtr I
   +W
|-------------------------------------------|
|-(13)--------------------------------------|
|-------------------------------------------|
|-(10)--------------------------------------|
|-------------------------------------------|
|-------------------------------------------|
|
|Gtr II, III
|   PM----------------------------------|
|   E     E    E    E    E    E    E    E
|-------------------------------------------|
|-------------------------------------------|
|-------------------------------------------|
|--10----10---10---10---10---10---10---10---|
|---8-----8----8----8----8----8----8----8---|
|-------------------------------------------|




 Chorus
similar to previous




 Interlude
 Gtr I                   Gtr I
    E Q.    +H         8x  E   E   E   E   E   E   E   E    8x
||---------------------||-----------------------------------||
||o-------------------o||o---------------------------------o||
||---------------------||-----------------------------------||
||---------------------||--0---5---7---5---8---5---7---5----||
||o-------------------o||o---------------------------------o||
||--1s5-----(5)--------||-----------------------------------||



  E   E   E   E   E   E   Q         E   E   E   E   E   E   Q
|---------------------------------|---------------------------------|
|---------------------------------|---------------------------------|
|---------------------------------|---------------------------------|
|-0---5---7---5---8---7---5-------|-0---5---7---5---8---7---5-------|
|---------------------------------|---------------------------------|
|---------------------------------|---------------------------------|


  E   E   E   E   E   E   Q         E   E   Q       E   E   Q
|---------------------------------|---------------------------------|
|---------------------------------|---------------------------------|
|---------------------------------|---------------------------------|
|-0---5---7---5---8---7---5-------|-8---7---5-------8---7---5-------|
|---------------------------------|---------------------------------|
|---------------------------------|---------------------------------|




 Pre-Chorus
similar to previous (without the distorted guitars, of course), and add this:

 Gtr I
     +W                                 3x
||--------------------------------------||
||o-(13)-------------------------------o||
||--------------------------------------||
||--(10)--------------------------------||
||o------------------------------------o||
||--------------------------------------||




 Ending Chorus
 Gtr II, III
  E   E   E   E   E   E   E   E     E   E   E   E   E   E   E   E
|---------------------------------|---------------------------------|
|---------------------------------|---------------------------------|
|---------------------------------|---------------------------------|
|-0---5---7---5---8---5---7---5---|-0---5---7---5---8---5---7---5---|
|-0---5---7---5---8---5---7---5---|-0---5---7---5---8---5---7---5---|
|-0---5---7---5---8---5---7---5---|-0---5---7---5---8---5---7---5---|



    E   E   E   E   E   E   E   E     E   E   E   E   E   E   E   E
||----------------------------------|---------------------------------|
||o---------------------------------|---------------------------------|
||----------------------------------|---------------------------------|
||--0---5---7---5---8---5---7---5---|-0---5---7---5---8---7---5---3---|
||o-0---5---7---5---8---5---7---5---|-0---5---7---5---8---7---5---3---|
||--0---5---7---5---8---5---7---5---|-0---5---7---5---8---7---5---3---|



  Q       Q       a Q       Q         Q       Q       Q       Q
|-----------------------------------|----------------------------------||
|-----------------------------------|---------------------------------o||
|-----------------------------------|----------------------------------||
|-1-------1-------------------------|-0-------0-------4-------7--------||
|-1-------1-------3s5-------3-------|-0-------0-------4-------7-------o||
|-1-------1-------------------------|-0-------0-------4-------7--------||




- 5th /February /06
Just mail me at Maitinin@gmail.com with questions, comments or corrections!






**********************************************************************************************

    _____________________
   / System of a Down   /  I think this song is about Daron's disgust for
  / Lost In Hollywood  /  Hollywood and it's way of consuming and abusing
 / Mezmerize          /  so many poor people, who gambled everything they
/____________________/  own to taste the advertised and 'invaluable' fame.



                 C5                E5                G5
            x 3 5 5 x x       2 2 2 x x x       5 5 5 x x x

                          A5                F5
                     x 0 2 2 x x       3 3 3 x x x


Tuning: Db Ab Db Gb Bb Eb
        C# G# C# F# A# D#
Gtr I - Electric, Clean
Gtr II - Steel Stringed Acoustic, Clean
Gtr III - Electric, Lightly Overdriven
Gtr IV - Electric, Clean
Gtr V - Electric, Clean


 
 Intro
 Q=77 bpm
 4/4
 Gtr I
  Am                                Am
  S S S S S S S S S S S S S S S S   S S S S S S S S S S S S S S S S
|---------------------------------|---------------------------------|
|---------------------------------|---------------------------------|
|---------------------------------|---------------------------------|
|-2-2-2-2-2-2-2-2-3-3-3-3-3-3-3s9-|-9-9-9-9-9-9-9-9-7-7-7-7-7-7-7-0-|
|-0-0-0-0-0-0-0-0-0-0-0-0-0-0-0---|-0-0-0-0-0-0-0-0-0-0-0-0-0-0-0-0-|
|---------------------------------|---------------------------------|



 Gtr I, II
  S S S S S S S S S S S S S S S  S    S  S  S  S  S  S  S S S S S S S S S S
|----------------------------------|----------------------------------------|
|----------------------------------|----------------------------------------|
|----------------------------------|----------------------------------------|
|-2-2-2-2-2-2-2-2-3-3-3-3-3-3-3s12-|-12-12-12-12-12-12-12s7-7-7-7-7-7-7-7-0-|
|-0-0-0-0-0-0-0-0-0-0-0-0-0-0-0----|--0--0--0--0--0--0--0---0-0-0-0-0-0-0-0-|
|----------------------------------|----------------------------------------|



  S S S S S S S S S S S S S S S S   S S S S S S S S S S S S S S S S
|---------------------------------|---------------------------------|
|---------------------------------|---------------------------------|
|---------------------------------|---------------------------------|
|-2-2-2-2-2-2-2-2-3-3-3-3-3-3-3s9-|-9-9-9-9-9-9-9-9-7-7-7-7-7-7-7-0-|
|-0-0-0-0-0-0-0-0-0-0-0-0-0-0-0---|-0-0-0-0-0-0-0-0-0-0-0-0-0-0-0-0-|
|---------------------------------|---------------------------------|



  S S S S S S S S S S S S S S S  S    S  S  S  S  S  S  S  S  S  S  S  S  S  S  S S
|----------------------------------|------------------------------------------------|
|----------------------------------|------------------------------------------------|
|----------------------------------|------------------------------------------------|
|-2-2-2-2-2-2-2-2-3-3-3-3-3-3-3s12-|-12-12-12-12-12-12-12s14-14-14-14-14-14-14-14---|
|-0-0-0-0-0-0-0-0-0-0-0-0-0-0-0----|--0--0--0--0--0--0--0-----0--0--0--0--0--0--0-0-|
|----------------------------------|------------------------------------------------|




 1st Verse
 Gtr I, II
  Am                                 Am
  Q       S S S S S S S S  S S S S   S S S S  S S S S S S S S S S S S
|----------------------------------|----------------------------------|
|----------------------------------|----------------------------------|
|----------------------------------|----------------------------------|
|-7-------7-------9-------10-------|---------10-------9-------7-------|
|-7---------7---7---7---7----7---7-|---7---7----7---7---7---7---7---7-|
|-7-----------7-------7--------7---|-7---7--------7-------7-------7---|



  Am                                 Am
  S S S S S S S S S S S S  S S S S   S S S S  S S S S S S S S S S S S
|----------------------------------|----------------------------------|
|----------------------------------|----------------------------------|
|----------------------------------|-9--------------------------------|
|---------7-------9-------10-------|---------10-------9-------7-------|
|---7---7---7---7---7---7----7---7-|---7---7----7---7---7---7---7---7-|
|-7---7-------7-------7--------7---|-----7--------7-------7-------7---|



 Gtr II
  C5                                E5
  Q.          S E   S S E   E.      Q       E.    E.    E   S S E
  |           | |   | | |   |       |       |     |     |   | | |
  /           / /   / / /   /       /       /     /     /   / / /

 Gtr I
  Cadd9                             E
  E   S S S S S E   S S E   S S S   E   S S S S S S S S S S S S S S
|---------------------------------|---------------------------------|
|---------------3-------3---------|-0-------0-----0-----0-----------|
|-5-------5-----------------------|-4-------4-----4-----4---4-5-4-0-|
|-5-----5---5-------5-------5---5-|-2---2-2-2-2-2-2-2-2-2-2---------|
|-3---3-------3-------3-------3---|---------------------------------|
|---------------------------------|---------------------------------|





 2nd Verse
similar to 1st Verse




 Interlude
 Gtr I, II
  S S S S S S S S S S S S S S S S   S S S S S S S S S S S S S S S S
|---------------------------------|---------------------------------|
|---------------------------------|---------------------------------|
|---------------------------------|---------------------------------|
|-2-2-2-2-2-2-2-2-3-3-3-3-3-3-3s9-|-9-9-9-9-9-9-9-9-7-7-7-7-7-7-7-0-|
|-0-0-0-0-0-0-0-0-0-0-0-0-0-0-0---|-0-0-0-0-0-0-0-0-0-0-0-0-0-0-0-0-|
|---------------------------------|---------------------------------|



  S S S S S S S S S S S S S S S  S    S  S  S  S  S  S  S  S  S  S  S  S  S  S  S S
|----------------------------------|------------------------------------------------|
|----------------------------------|------------------------------------------------|
|----------------------------------|------------------------------------------------|
|-2-2-2-2-2-2-2-2-3-3-3-3-3-3-3s12-|-12-12-12-12-12-12-12s14-14-14-14-14-14-14-14---|
|-0-0-0-0-0-0-0-0-0-0-0-0-0-0-0----|--0--0--0--0--0--0--0-----0--0--0--0--0--0--0-0-|
|----------------------------------|------------------------------------------------|




 3rd Verse
 Gtr I
  Q       S S S S S S S S  S S S S   S S S S  S S S S S S S S S S S S
|----------------------------------|----------------------------------|
|----------------------------------|----------------------------------|
|----------------------------------|----------------------------------|
|-7-------7-------9-------10-------|---------10-------9-------7-------|
|-7---------7---7---7---7----7---7-|---7---7----7---7---7---7---7---7-|
|-7-----------7-------7--------7---|-7---7--------7-------7-------7---|



  S S S S S S S S S S S S  S S S S   S S S S  S S S S S S S S S S S S
|----------------------------------|----------------------------------|
|----------------------------------|----------------------------------|
|----------------------------------|-9--------------------------------|
|---------7-------9-------10-------|---------10-------9-------7-------|
|---7---7---7---7---7---7----7---7-|---7---7----7---7---7---7---7---7-|
|-7---7-------7-------7--------7---|-----7--------7-------7-------7---|



  E   S S S S S E   S S E   S S S   E   S S S S S S S S S S S S S S
|---------------------------------|---------------------------------|
|---------------3-------3---------|-0-------0-----0-----0-----------|
|-5-------5-----------------------|-4-------4-----4-----4---4-5-4-0-|
|-5-----5---5-------5-------5---5-|-2---2-2-2-2-2-2-2-2-2-2---------|
|-3---3-------3-------3-------3---|---------------------------------|
|---------------------------------|---------------------------------|




 4th Verse
similar to 3rd Verse




 Chorus
 Gtr III
     C6       C                               G6      G 
     Q        E.     E    S  S  S  E    E     Q       E.    E   S S S E   E
||------------------------------------------|---------------------------------|
||o-----------------------------------------|---------------------------------|
||------------------------------------------|---------------------------------|
||------------------------------------------|---------------------------------|
||o-12-------10-----10---10-10-10-10---10---|-7-------5-----5---5-5-5-5---5---|
||--10-------10-----10---10-10-10-10---10---|-5-------5-----5---5-5-5-5---5---|



  Am#5    Am                        Em#5    Em      F6      F
  Q       E.    E   S E   E   E     Q       E   S S Q       E   S  S  6x
|---------------------------------|-----------------------------------||
|---------------------------------|----------------------------------o||
|---------------------------------|-----------------------------------||
|---------------------------------|-----------------------------------||
|-8-------7-----7---7-7---7---7---|-3-------2---2-2-5-------3---3s10-o||
|-7-------7-----7---7-7---7---7---|-2-------2---2-2-3-------3---3s10--||




 Bridge:
 Gtr IV
  Am              E7/B              F6              E
  S S S S S S S S S S S S S S S S   S S S S S S S S S S S S S S S S
|---------0---------------0-------|---------1---------------0-------|
|-------1---1-----------0---0-----|-----3-----3---------0-----0-----|
|-----2-------2-------1-------1---|---2---2-----2-----1---1-----1---|
|---2-----------2---0-----------0-|-3-------------3-2-------------2-|
|-0---------------2---------------|---------------------------------|
|---------------------------------|---------------------------------|
|-Rhy Fig 1



 Gtr IV
   Dm               C6                   E7/B
   S S S S S S S S  S S S S  S S S  S    S S S S S S S S S S S S S S S S
|----------1--------------------------|----------0---------------0-------|
|------3-----3---------------1--------|--------0---0-----------0---0-----|
|----2---2-----2--------2------2------|------1-------1-------1-------1---|
|--0-------------0----2---2------2----|----0-----------0---0-----------0-|
|-------------------3---------------3-|--2---------------2---------------|
|-------------------------------------|----------------------------------|
|                                                          end Rhy Fig 1-|
|
|Gtr I
|  H                Q        E.     S    W
|-------------------------------------|----------------------------------|
|-18---------------17-------15-----13-|-12-------------------------------|
|-19---------------17-------16-----14-|-13-------------------------------|
|-------------------------------------|----------------------------------|
|-------------------------------------|----------------------------------|
|-------------------------------------|----------------------------------|



w/Rhy Fig 1
 Gtr I
   H                H                    H               H
|-------------------------------------|----------------------------------|
|-17---------------15-----------------|-18--------------17---------------|
|-17---------------16-----------------|-19--------------17---------------|
|-------------------------------------|----------------------------------|
|-------------------------------------|----------------------------------|
|-------------------------------------|----------------------------------|
|-Rhy Fig 2



   H                Q        E.     S    W
|-------------------------------------|----------------------------------|
|-18---------------17-------15-----13-|-12-------------------------------|
|-19---------------17-------16-----14-|-13-------------------------------|
|-------------------------------------|----------------------------------|
|-------------------------------------|----------------------------------|
|-------------------------------------|----------------------------------|
                                                           end Rhy Fig 2-|



w/Rhy Fig 1 + 2
 Gtr V
   S  S  S  S  S  S  S  S  S  S  S  S  S  S  S  S    S  S  S  S  S  S  S  S  S  S  S  S  S  S  S  S
|-------------------------------------------------|-------------------------------------------------|
|----------15-17-15-------18-17-------17-15-------|-20-18-17-15-18-17-------17-15-------15-13-------|
|-14-16-17----------17-16-------17-16-------17-16-|-------------------17-16-------17-16-------16-14-|
|-------------------------------------------------|-------------------------------------------------|
|-------------------------------------------------|-------------------------------------------------|
|-------------------------------------------------|-------------------------------------------------|



   H                Q        E.     S   W
|-------------------------------------|---------------------------------|
|-15---------------13-------12-----10-|-9-------------------------------|
|-------------------------------------|---------------------------------|
|-------------------------------------|---------------------------------|
|-------------------------------------|---------------------------------|
|-------------------------------------|---------------------------------|




 Chorus
 Gtr II
     C5                                       G5
     S S S S  S S S  S S  S  S  S  S S  S S   S S S S S S S S S S S S S S S S
     | | | |  | | |  | |  |  |  |  | |  | |   | | | | | | | | | | | | | | | |
     / / / /  / / /  / /  /  /  /  / /  / /   / / / / / / / / / / / / / / / /

 Gtr III
     Q        E.     E    S  S  S  E    E     Q       E.    E   S S S E   E
||------------------------------------------|---------------------------------|
||o-----------------------------------------|---------------------------------|
||------------------------------------------|---------------------------------|
||------------------------------------------|---------------------------------|
||o-12-------10-----10---10-10-10-10---10---|-7-------5-----5---5-5-5-5---5---|
||--10-------10-----10---10-10-10-10---10---|-5-------5-----5---5-5-5-5---5---|



  A5                                E5              F5
  S S S S S S S S S S S S S S S S   S S S S S S S S S S S S S S S  S
  | | | | | | | | | | | | | | | |   | | | | | | | | | | | | | | |  |
  / / / / / / / / / / / / / / / /   / / / / / / / / / / / / / / /  /

  Q       E.    E   S E   E   E     Q       E   S S Q       E   S  S  2x
|---------------------------------|-----------------------------------||
|---------------------------------|----------------------------------o||
|---------------------------------|-----------------------------------||
|---------------------------------|-----------------------------------||
|-8-------7-----7---7-7---7---7---|-3-------2---2-2-5-------3---3s10-o||
|-7-------7-----7---7-7---7---7---|-2-------2---2-2-3-------3---3s10--||



 Gtr III
     Q        E.     E    S  S  S  E    E     Q       E.    E   S S S E   E
||------------------------------------------|---------------------------------|
||o-----------------------------------------|---------------------------------|
||------------------------------------------|---------------------------------|
||------------------------------------------|---------------------------------|
||o-12-------10-----10---10-10-10-10---10---|-7-------5-----5---5-5-5-5---5---|
||--10-------10-----10---10-10-10-10---10---|-5-------5-----5---5-5-5-5---5---|



  Q       E.    E   S E   E   E     Q       E   S S Q       E   S  S  4x
|---------------------------------|-----------------------------------||
|---------------------------------|----------------------------------o||
|---------------------------------|-----------------------------------||
|---------------------------------|-----------------------------------||
|-8-------7-----7---7-7---7---7---|-3-------2---2-2-5-------3---3s10-o||
|-7-------7-----7---7-7---7---7---|-2-------2---2-2-3-------3---3s10--||




 Outro
 Gtr I
  E   S S S S S S S S S S  S S S S   S S S S  S S S S S S S S S S S S
|----------------------------------|----------------------------------|
|----------------------------------|----------------------------------|
|----------------------------------|----------------------------------|
|-7-------7-------9-------10-------|---------10-------9-------7-------|
|-7-----7---7---7---7---7----7---7-|---7---7----7---7---7---7---7---7-|
|-7---7-------7-------7--------7---|-7---7--------7-------7-------7---|



  S S S S S S S S S S S S  S S S S   S S S S  S S S S S S S S S S S S
|----------------------------------|----------------------------------|
|----------------------------------|----------------------------------|
|----------------------------------|-9--------------------------------|
|---------7-------9-------10-------|---------10-------9-------7-------|
|---7---7---7---7---7---7----7---7-|---7---7----7---7---7---7---7---7-|
|-7---7-------7-------7--------7---|-----7--------7-------7-------7---|



  E   S S S S S E   S S E   S S S   Q       E.    E   S E   S S E
|---------------------------------|---------------------------------|
|---------------3-------3---------|---------------------------------|
|-5-------5-----------------------|-4-------4-----4-----4---4-5-4---|
|-5-----5---5-------5-------5---5-|-2-----------------2-------------|
|-3---3-------3-------3-------3---|---------------------------------|
|---------------------------------|---------------------------------|



  W
|---------------------------------|
|---------------------------------|
|-2-------------------------------|
|-2-------------------------------|
|-0-------------------------------|
|---------------------------------|




- 20th /September /05
Just mail me at Maitinin@gmail.com with questions, comments and corrections!

**********************************************************************************************
Добавлено: 09.09.2013
Другие материалы по этой песне:
  • Аккорды и текст

Страница создана 09.09.2013
http://primanota.ru/system-of-a-down/mezmerize-chords.htm
Привет, Гость.
Предлагаем пройти революционный курс по гитаре.
Подарок от PrimaNota.Ru, забирай!