PrimaNota.ru - самый крупный в мире бесплатный архив песенных текстов, аккордов, табулатур и нот


System Of A Down - Innervision - аккорды и текст, таба, бас-таба, драм-таба, видео

Регистрация Запомнить меня
Войти через:  Facebook Google Twitter Vk Yandex Mail.ru

System Of A Down - Innervision - аккорды и текст, таба, бас-таба, драм-таба, видео

Печатать
Просмотров: 666
Innervision
System Of A Down



Date: Fri, 26 Oct 2001 04:16:05 -0700 (PDT)
From: or abramovitz 
Subject: s/system_of_a_down/innervision.crd

Song:           Innervision
Artist:         System Of A Down
Album:          Toxicity
Tabbed By:      Or Abramovitz A.k.A OrTz
Email:          orchuk@yahoo.com

This tab is all my own work.


Intro
-----


D--------------------------------------
A--------------------------------------
F--------------------------------------
C-131-1-1-1-1-1-1-1-1-1-1-1-1-1-1-1---
G-131-1-1-1-1-1-1-1-1-1-1-1-1-1-1-1---
C-131-1-1-1-1-1-1-1-1-1-1-1-1-1-1-1---


Pre-Verse
---------

D-----------------------------------
A-----------------------------------
F-----------------------------------
C-0-0-5-5-5-3-3-3-3-1-1-1-3-3-1-1---
G-0-0-5-5-5-3-3-3-3-1-1-1-3-3-1-1---
C-0-0-5-5-5-3-3-3-3-1-1-1-3-3-1-1---


Verse
-----

(riff 1)
D-----------------------------------
A-----------------------------------
F----------------------------------- X2
C-0-0-5-5-5-3-3-3-3-1-1-1-3-3-1-1---
G-0-0-5-5-5-3-3-3-3-1-1-1-3-3-1-1---
C-0-0-5-5-5-3-3-3-3-1-1-1-3-3-1-1---


(riff 2)
D------------------------------
A------------------------------
F------------------------------ X2
C------------------------------
G------------------------------
C-0-0-5-5-7-7-3-3-7-7-5-5------

(Repeat)


Pre-Chorus
----------

D-----------------------------------
A---3-4p3-3---------3-4p3-3---------
F-3---------------3-----------------
C-1-1-1-1-1-1-1-1-1-1-1-1-1-1-1-1---
G-1-1-1-1-1-1-1-1-1-1-1-1-1-1-1-1---
C-1-1-1-1-1-1-1-1-1-1-1-1-1-1-1-1---


Chorus
------
D----------------------------
A----------------------------
F----------------------------
C-0-5-7-3-7-5--0-5-7-3-7-5---
G-0-5-7-3-7-5--0-5-7-3-7-5---
C-0-5-7-3-7-5--0-5-7-3-7-5---

D-----------------------------------
A-----------------------------------
F-----------------------------------
C-1-1-1-1-1-1-1-1-1-1-1-1-1-1-1-1---
G-1-1-1-1-1-1-1-1-1-1-1-1-1-1-1-1---
C-1-1-1-1-1-1-1-1-1-1-1-1-1-1-1-1---




Pre-Verse




Verse




Pre-Chorus




Chorus X3




Chorus2 (X3)
-------


D------------------------------------
A------------------------------------
F------------------------------------
C-1--1--1--1--1-1--1-1-1-1-1-1-1-1---
G-1--1--1--1--1-1--1-1-1-1-1-1-1-1---
C-1--1--1--1--1-1--1-1-1-1-1-1-1-1---


D----------------------------
A----------------------------
F----------------------------
C-0-5-7-3-7-5--0-5-7-3-7-5---
G-0-5-7-3-7-5--0-5-7-3-7-5---
C-0-5-7-3-7-5--0-5-7-3-7-5---




D-6-6-6-6-5-5-5-5-6-6-6-6-5-5-5-5--6-6-6-6-5-5-5-5-6-6-6-6-5-5-5-5---
A-4-4-4-4-4-4-4-4-4-4-4-4-4-4-4-4--3-3-3-3-3-3-3-3-3-3-3-3-3-3-3-3---
F-------------------------------------------------------------------- (X2)
C--------------------------------------------------------------------
G--------------------------------------------------------------------
C--------------------------------------------------------------------



D-6-6-6-6-5-5-5-5-6-6-6-6-5-5-5-5-----------
A-4-4-4-4-4-4-4-4-4-4-4-4-4-4-4-4-----------
F-------------------------------------------
C----------------------------------0~~~~~~~~  
G----------------------------------0~~~~~~~~
C----------------------------------0~~~~~~~~


Ending
------


D-------------------------------------
A-------------------------------------
F------------------------------------- (X2) 
C-0-0-5-5-3--1-1-3-1------------------
G-0-0-5-5-3--1-1-3-1------------------
C-0-0-5-5-3--1-1-3-1------------------



D-----------------------------------
A-----------------------------------
F----------------------------------- (X2)
C-0-0-5-5-5-3-3-3-3-1-1-1-3-3-1-1---
G-0-0-5-5-5-3-3-3-3-1-1-1-3-3-1-1---
C-0-0-5-5-5-3-3-3-3-1-1-1-3-3-1-1---


Добавлено: 03.09.2013
Другие материалы по этой песне:

Страница создана 22.02.2012
http://primanota.ru/system-of-a-down/innervision-chords.htm
Привет, Гость.
Предлагаем пройти революционный курс по гитаре.
Подарок от PrimaNota.Ru, забирай!