PrimaNota.ru - самый крупный в мире бесплатный архив песенных текстов, аккордов, табулатур и нот


System Of A Down - Know - аккорды и текст, таба, бас-таба, видео

Регистрация Запомнить меня
Войти через:  Facebook Google Twitter Vk Yandex Mail.ru

System Of A Down - Know - аккорды и текст, таба, бас-таба, видео

Печатать
Просмотров: 510
Авторы музыки: Daron Malakian, Serj Tankian, Shavo Odadjian
Авторы текста: Serj Tankian
Know
System Of A Down
		   SONG:  KNOW
ALBUM  SYSTEM OF A DOWN
BAND:  SYSTEM OF A DOWN
TRANSCRIBED BY:  CESAR CHAPARRO G
E-MAIL: BIOKILLER@DOCTOR.COM


Key:
 ~   = Vibrato
0:00 = TIME
PM   = palm mute


INTRO: (DRUMS)

RIFF 1

C |----------------------------------------------------------------------|
A |----------------------------------------------------------------------|
F |----------------------------------------------------------------------|
C |--0--7-0--0-0--7-7----------------------------------------------------|
G |--0--7-0--0-0--7-7----------------------------------------------------|
C |--0--7-0--0-0--7-7----------------------------------------------------|
                           . . . . .     . . . .

RIFF 2  (00:19)

C |----------------------------------------------------------------------|
A |----------------------------------------------------------------------|
F |----------------------------------------------------------------------|
C |--0--7-0--0-0--3---------0--7--0-0-0---3------------------------------|
G |--0--7-0--0-0--3---------0--7--0-0-0---3------------------------------|
C |--0--7-0--0-0--3---------0--7--0-0-0---3------------------------------|
        Crushed earth!!!!!        Crushed    earth!!!!

RIFF 3   (00:32)

C |---10-10-10-10-10-10-10-10-10-10-10-10-10-10-10-10-10-10-10-10--------|
A |----------------------------------------------------------------------|
F |----------------------------------------------------------------------|
C |----------------------------------------------------------------------|
G |----------------------------------------------------------------------|
C |----------------------------------------------------------------------|
    PM

RIFF 4   (00:35)

C |----------------------------------------------------------------------|
A |----------------------------------------------------------------------|
F |----------------------------------------------------------------------|
C |--0--0--0--0--3--0-0-0-0--3--------------------------------------------|
G |--0--0--0--0--3--0-0-0-0--3--------------------------------------------|
C |--0--0--0--0--3--0-0-0-0--3--------------------------------------------|
   PM                        . . . . .     . . . .


RIFF 5     VERSE     (00:42)

C |--------------------------------------------|
A |--------------------------------------------|
F |--------------------------------------------|
C |--------------------------------------------|
G |--------------------------------------------|
C |--0-0-0-0-0-3--0-0-0-0-0--3-----------------|
   PM                        . . . . .     . . .

    I will never feed off the evergreen luster of your heart all


 RIFF 6  CHORUS   (00:56)

 |--------------------------|
 |--------------------------|
 |--------------------------|
 |--0-0--3--0-0--3----------|
 |--0-0--3--0-0--3----------|
 |--0-0--3--0-0--3----------|

You never think you know why!!!!!,
Know, You never think you know why!!!!

RIFF 7  (1:43)

C |----------------------------------------------------------------------|
A |----------------------------------------------------------------------|
F |----------------------------------------------------------------------|
C |--0--0--0--0--0--0----------------------------------------------------|
G |--0--0--0--0--0--0----------------------------------------------------|
C |--0--0--0--0--0--0----------------------------------------------------|


 RIFF 8  (1:52)
C |----------------------------------------------------------------------|
A |----------------------------------------------------------------------|
F |-----------------------------------------9~---------------------------|
C |-----------------------------------------9~---------------------------|
G |-----------------------------------------7~---------------------------|
C |--0-~~~~~~-------3-3-~~~~~----0---~~~~--------------------------------|

 RIFF  9  (2:17)                         (2:29)
C |------------------------------------|----------------------------------|
A |------------------------------------|----------------------------------|
F |------------------------------------|----------------------------------|
C |------------------------------------|-0-0-0-0-0-3-3-3-3-3--0-0-0-0-0---|
G |------------------------------------|-0-0-0-0-0-3-3-3-3-3--0-0-0-0-0---|
C |--0-0-0-0-0-0--3-3-3-3-3--0-0-0-0-0-|-0-0-0-0-0-3-3-3-3-3--0-0-0-0-0---|

ORDER

INTRO
RIFF 1  4X
RIFF 2  4X
RIFF 3
RIFF 4  4X
RIFF 5 VERSE  (MANY TIMES)
RIFF 6 CHORUS 4X
RIFF 4  4X
RIFF 5 VERSE  (MANY TIMES)
RIFF 6 CHORUS 4X
RIFF 7  (MANY TIMES)
RIFF 8  MANY TIMES
RIFF 9 MANY TIMES
RIFF 6 CHORUS 4X

END     
Добавлено: 03.09.2013
Другие материалы по этой песне:

Страница создана 21.02.2012
http://primanota.ru/system-of-a-down/know-chords.htm
Привет, Гость.
Предлагаем пройти революционный курс по гитаре.
Подарок от PrimaNota.Ru, забирай!