PrimaNota.ru - самый крупный в мире бесплатный архив песенных текстов, аккордов, табулатур и нот


Symphony X - Whispers - текст песни, таба, видео

Регистрация Запомнить меня
Войти через:  Facebook Google Twitter Vk Yandex Mail.ru

Symphony X - Whispers - текст песни, таба, видео

Печатать
Просмотров: 125
As recorded by Symphony X
(From the 1995 Album THE DAMNATION GAME)

Transcribed by Mario M (mariomojas@net.hr)
	

Words and Music by Michael Romeo, Michael Pinnela, Thomas Miller, Jason Rullo and Russel Allen

Esus4/A
x 0 2 2 0 x
	
G5
3 5 5 x x x
	
F5
1 3 3 x x x
	
G#5
4 6 6 x x x

B5
x 2 4 4 x x
	
A5
5 7 7 x x x
	
C5
8 10 10 x x x
	
E5
2 4 4 x x x

D5
0 2 2 x x x
	
C5(type 2)
10 12 12 x x x
	
B5(type 2)
9 11 11 x x x

Gtr I (D G C F A D) - 'Michael Romeo (Rhythm)'
Gtr II (E A D G B E) - 'Michael Pinnella'
Gtr III (D G C F A D) - 'Michael Romeo (Acoustic)'
Gtr IV (E A D G B E) - 'Michael Pinnella'
Gtr V (D G C D A D) - 'Lead overdub'
Gtr VI (D G C F A D) - 'Michael Romeo (Lead)'

 Intro Solo
  Q=124
  Esus4/A
 4/4
  Gtr II
  W                        +W
  |                         |
  /                         /

  Gtr I
         \0.5/
                     ~~~~~~~~~~                ~~~~~~~~
                                      |--3--|
  Q  +E  Q      +E   Q     +Q    +E   S  S  S  Q   +E  S T T
|-----------------------|------------------------------------|
|-----------------------|----------------------------------x-|
|-----------------------|--------------------------------x---|
|-9--(9)s4------(4)s16--|-(16)--(16)-15h16p15-13--(13)-x-----|
|-----------------------|------------------------------------|
|-----------------------|------------------------------------|


  G5
   W                             +W
   |                              |
   /                              /

           \0.5/
                                  ~~~~~~~~~~~~~~
                         |-3-|
   E  +E   E     Q   E e S S S    H    +Q   +E  S S
|-11-(11)h12S====9--/5---------|--------------------|
|----------------------4-4h5p4-|--2----(2)--(2)-----|
|------------------------------|----------------4-6-|
|------------------------------|--------------------|
|------------------------------|--------------------|
|------------------------------|--------------------|


  F5                   F5
  W                    +W
  |                     |
  /                     /

  Gtr I
  ~~~~~~~
            |-3-|               |-3-|       |-3-|
  Q  +E  Q  S S S Q    +Q   +E  S S Q +E  E S S S
|--------------------|----------------------------|
|--------------------|----------------------------|
|-7--(7)-6--6h7p6-4--|-(4)--(4)-------------------|
|--------------------|----------7-9p5-(5)-7p5h7p5p|
|--------------------|----------------------------|
|--------------------|----------------------------|


  G#5
  W                             +W
  |                              |
  /                              /

                |--3--|
  Q   E  Q   E  S  S  S S  S    +S     Q   S  S  S  S  S  S  S  S  E  +S
|----------------------------|-------/18p=17p15------------------------------|
|----------------------------|------------------18p17p15---------------------|
|----10-10--12p10h12p10p9h10-|-(10)\---------------------17p15p14p12-(12)\---|
|-3--------------------------|-----------------------------------------------|
|----------------------------|-----------------------------------------------|
|----------------------------|-----------------------------------------------|


  Esus4/A
 4/4
  Gtr II
  W                        +W
  |                         |
  /                         /

  Gtr I
         \0.5/
                     ~~~~~~~~~~                ~~~~~~~~
                                      |--3--|
  Q  +E  Q      +E   Q     +Q    +E   S  S  S  Q   +E  S T T
|-----------------------|------------------------------------|
|-----------------------|----------------------------------x-|
|-----------------------|--------------------------------x---|
|-9--(9)s4------(4)s16--|-(16)--(16)-15h16p15-13--(13)-x-----|
|-----------------------|------------------------------------|
|-----------------------|------------------------------------|


  G5
   W
   |
   /

           \0.5/
                         |-3-|
   E  +E   E     Q   E e S S S
|-11-(11)h12S====9--/5---------|
|----------------------4-4h5p4-|
|------------------------------|
|------------------------------|
|------------------------------|
|------------------------------|


  G5                   F5
 4/4
  +W                   W                    +W
   |                   |                     |
   /                   /                     /

  Gtr I
   ~~~~~~~~~~~~~~      ~~~~~~~
                                 |-3-|               |-3-|
   H    +Q   +E  S S   Q  +E  Q  S S S Q    +Q   +E  S S Q +E   Q
|--------------------|--------------------|------------------------|
|--2----(2)--(2)-----|--------------------|------------------------|
|----------------4-6-|-7--(7)-6--6h7p6-4--|-(4)--(4)---------------|
|--------------------|--------------------|----------7-9p5-(5)-11--|
|--------------------|--------------------|------------------------|
|--------------------|--------------------|------------------------|


  N.C.
 4/4
  Gtr I
                       \0.25/  \0.25/  \0.25/  \0.25/  \0.25/  \0.25/  \0.25/  \0.25/
  ~
  W                   +E      +E      +E      +E      +E      +E      +E      +E
|-------------------|-----------------------------------------------------------------|
|-------------------|-----------------------------------------------------------------|
|-------------------|-----------------------------------------------------------------|
|-9-----------------|-(9)-----(9)-----(9)-----(9)-----(9)-----(9)-----(9)-----(9)-----|
|-------------------|-----------------------------------------------------------------|
|-------------------|-----------------------------------------------------------------|
|
| Gtr III
| Q  +E  E E E  Q     +Q               Q               Q              +E       E
|--------2----------|----------------------------------------------------------2------|
|----------3----5---|-(5)--------------2----------------------------------------------|
|-4--(4)-----4------|----------------------------------4--------------(4)-------------|
|-------------------|-----------------------------------------------------------------|
|-------------------|-----------------------------------------------------------------|
|-------------------|-----------------------------------------------------------------|
|
| Gtr IV
| Q   E  E E E +Q     +Q               Q               Q               E       E
|-----0-------------|--------------------------------------------------0--------------|
|--------1---0-(0)--|-(0)--------------0---------------1-----------------------1------|
|-2--------2-0-(0)--|-(0)--------------0---------------2------------------------------|
|-------------------|-----------------------------------------------------------------|
|-------------------|-----------------------------------------------------------------|
|-------------------|-----------------------------------------------------------------|


                                                        5/4
    >
    W                               W                     W             Q
|-------------------------------|----------------------|---------------------|
|-------------------------------|----------------------|---------------------|
|-------------------------------|----------------------|---------------------|
|-([9])-------------------------|-([9])\---------------|---------------------|
|-------------------------------|----------------------|---------------------|
|-------------------------------|----------------------|---------------------|
|
|   E    E  H           +Q          Q     +E  E E E Q    +Q   Q  H     +Q
|-----------5-----------(5)-----|-------------2-----3--|-(3)-----2-----(2)---|
|---3---------------------------|---------------3------|------3--------------|
|--------4----------------------|---4-----(4)-----4----|---------------------|
|-------------------------------|----------------------|---------------------|
|-------------------------------|----------------------|---------------------|
|-------------------------------|----------------------|---------------------|
|
|   E    Q     E  E +E   E   E      H           Q   Q     Q   Q  Q  Q  +Q
|-------------------------------|----------------------|---------------------|
|--------1----(1)-1-(1)--0--(0)-|---0-----------1---1--|--0------------------|
|---2---(2)----2-------------0--|--(0)-----------------|------2--2--1--(1)---|
|-------------------------------|----------------------|---------------------|
|-------------------------------|----------------------|---------------------|
|-------------------------------|----------------------|---------------------|


 Verse
  N.C.
 4/4
  Gtr III
  Q  +E  E E E  Q     +Q   Q  Q  +E  E   E  E  H           +Q
|--------2----------|----------------2-|-------5-----------(5)-----|
|----------3----5---|-(5)--2-----------|-3-------------------------|
|-4--(4)-----4------|---------4--(4)---|----4----------------------|
|-------------------|------------------|---------------------------|
|-------------------|------------------|---------------------------|
|-------------------|------------------|---------------------------|
|
| Gtr IV
| Q   E  E E E +Q     +Q   Q  Q   E  E   E  Q     E  E +E   E   E
|-----0-------------|-------------0----|---------------------------|
|--------1---0-(0)--|-(0)--0--1------1-|----1----(1)-1-(1)--0--(0)-|
|-2--------2-0-(0)--|-(0)--0--2--------|-2-(2)----2-------------0--|
|-------------------|------------------|---------------------------|
|-------------------|------------------|---------------------------|
|-------------------|------------------|---------------------------|


                     5/4
   Q   +E  E E E Q    +Q   Q  H     +Q
|----------2-----3--|-(3)-----2-----(2)---|
|------------3------|------3--------------|
|--4---(4)-----4----|---------------------|
|-------------------|---------------------|
|-------------------|---------------------|
|-------------------|---------------------|
|
|  H         Q   Q     Q   Q  Q  Q  +Q
|-------------------|---------------------|
|--0---------1---1--|--0------------------|
|-(0)---------------|------2--2--1--(1)---|
|-------------------|---------------------|
|-------------------|---------------------|
|-------------------|---------------------|


  N.C.
 4/4
  Gtr III
  Q  +E  E E E  Q     +Q   Q  Q  +E  E   E  E  H           +Q
|--------2----------|----------------2-|-------5-----------(5)-----|
|----------3----5---|-(5)--2-----------|-3-------------------------|
|-4--(4)-----4------|---------4--(4)---|----4----------------------|
|-------------------|------------------|---------------------------|
|-------------------|------------------|---------------------------|
|-------------------|------------------|---------------------------|
|
| Gtr IV
| Q   E  E E E +Q     +Q   Q  Q   E  E   E  Q     E  E +E   E   E
|-----0-------------|-------------0----|---------------------------|
|--------1---0-(0)--|-(0)--0--1------1-|----1----(1)-1-(1)--0--(0)-|
|-2--------2-0-(0)--|-(0)--0--2--------|-2-(2)----2-------------0--|
|-------------------|------------------|---------------------------|
|-------------------|------------------|---------------------------|
|-------------------|------------------|---------------------------|


                     5/4
   Q   +E  E E E Q    +Q   Q  H     +Q
|----------2-----3--|-(3)-----2-----(2)---|
|------------3------|------3--------------|
|--4---(4)-----4----|---------------------|
|-------------------|---------------------|
|-------------------|---------------------|
|-------------------|---------------------|
|
|  H         Q   Q     Q   Q  Q  Q  +Q
|-------------------|---------------------|
|--0---------1---1--|--0------------------|
|-(0)---------------|------2--2--1--(1)---|
|-------------------|---------------------|
|-------------------|---------------------|
|-------------------|---------------------|


 Pre-Chorus
  N.C.
 3/4
  Gtr I
  ~~~~~~~~~~~~~~~~~~~~~~~~~~~~~~~~~~~~~~~~~~~~~~~~
  H       +Q       H       +Q      H         +Q
|---------------|---------------|-------------------|
|---------------|---------------|-------------------|
|---------------|---------------|-------------------|
|-9-------(9)---|-11------(11)--|-13--------(13)\---|
|---------------|---------------|-------------------|
|---------------|---------------|-------------------|
|
| Gtr III
| E E E E  E  E    E E Q    Q      E E E  E   E   E
|-------2-------|--5--------5---|--5--------------9-|
|-3--------3----|----7----------|----7--------6-----|
|---4---------4-|------7--------|------8-/8---------|
|-----4---------|---------------|-------------------|
|---------------|---------------|-------------------|
|---------------|---------------|-------------------|


   Chorus
    N.C.
   4/4
    Gtr I
           PM|  ~~~~~~~~~~~~             PM       ~~~~~~~~~~
    Q  +E  E Q  E +E    +H        Q  +E  E   Q    H     +Q
||--------------------|--------------------|-----------------|
||o-------------------|--------------------|-----------------|
||--------------------|--------------------|-----------------|
||--------------------|--------------------|-----------------|
||o-------------------|--------------------|-----------------|
||--2--(2)-4-5--4-(4)-|-(4)-------1--(1)-2-|-4----2-----(2)--|
|
|   Gtr IV
|   Q   Q    Q  Q        E  E E E H          E  E Q  Q   Q
||--------------------|--------------------|-----------------|
||o-------------------|--------------------|-----------------|
||--9---9----9--7-----|--4--2--------------|-----------------|
||--9---9----9--7-----|-------5-4-9--------|-9-10-9--9---9---|
||o-------------------|-----------9--------|-9--9-9--7---7---|
||--------------------|--------------------|-----------------|
|
|   Gtr III
|   W                    W                   W
||--------------------|--------------------|-----------------|
||o-------------------|--------------------|-----------------|
||--------------------|--------------------|-----------------|
||--------------------|--------------------|-----------------|
||o-------------------|--------------------|-----------------|
||--------------------|--------------------|-----------------|


  N.C.
 4/4
  Gtr I
       ~~~~~
   Q   Q  Q   Q       +W
|------------------|--------------------------|
|------------------|--------------------------|
|------------------|--------------------------|
|------------12----|-(12)---------------------|
|------------12----|-(12)---------------------|
|-14--12--9--10----|-(10)---------------------|
|
| Gtr IV
|  H      Q   E  E    +E   E  Q   E  Q      E
|------------------|--------------------------|
|------------------|--------------------------|
|------------------|--------------------------|
|--9------9--10-10-|-(10)-10-10--12-12-----12-|
|--7------9--10-10-|-(10)-10-10--10-10-----10-|
|------------------|--------------------------|
|
| Gtr III
|  H      Q   E  E    +E   E  Q   E  E +E   E
|------------------|--------------------------|
|-------------7----|--------------9-----------|
|----------------7-|--(7)------------7-(7)----|
|------------------|-------7----------------7-|
|------------------|----------9---------------|
|------------------|--------------------------|


 7/4
                 PM ~~~~~~~~~~~~~~
   +Q    E +Q    E  Q  H      +Q
|-----------------------------------||
|----------------------------------o||
|-----------------------------------||
|-(12)---9-(9)----------------------||
|-(12)---9-(9)---------------------o||
|-(10)---7-(7)---9-10--9------(9)---||
|
|   Q    E  Q    E  Q  E Q  E  Q
|-----------------------------------||
|----------------------------------o||
|-----------------------------------||
|--12---10-10---10-10--9-9--9--9----||
|--10---10-10---10-10--9-9--9--9---o||
|-----------------------------------||
|
|   Q    E  Q    E  Q  H      +Q
|-----------------------------------||
|--------7---------10--------------o||
|-----------7----7-----6------(6)---||
|-----------------------------------||
|--12------------------------------o||
|-----------------------------------||


 Guitar Solo I
  C#5                   G#5/C#
 3/4                   4/4
  Gtr I
   H         +Q          H                   +H
|---------------------|------------------------------------------|
|---------------------|------------------------------------------|
|---------------------|------------------------------------------|
|-13--------(13)------|-15------------------(15)-----------------|
|-13--------(13)------|-13------------------(13)-----------------|
|-11--------(11)------|-11------------------(11)-----------------|
|
| Gtr VI
|                                   ~~~~~~~~~~~~~~~~~~~
|                                                        |--3--|
|  H         +Q          E  E      +E   +Q        +Q     S  S  S
|---------------------|------------------------------------------|
|-14pb16----(14)pb16--|-11r14b16==(14)-(14)------(14)r-----------|
|---------------------|---------------------------------13h15p13-|
|---------------------|------------------------------------------|
|---------------------|------------------------------------------|
|---------------------|------------------------------------------|


  B5                      A5        G#5
   W                        H        H
|-----------------------|--------------------------|
|-----------------------|--------------------------|
|-----------------------|--------------------------|
|-11--------------------|---9--------8-------------|
|-11--------------------|---9--------8-------------|
|--9--------------------|---7--------6-------------|
|
|                  ~~
|  Q       +E   E  H        Q    Q   Q   S  S  S S
|-----------------------|--------------------------|
|-----------------------|--------------------------|
|-13pb15r=(13)p11-13----|-/13\--11S=10\------------|
|-----------------------|----------------8-10-12-8-|
|-----------------------|--------------------------|
|-----------------------|--------------------------|


  C#5                G#5/C#
 3/4                4/4
  Gtr I
   H       +Q         H                  +H
|------------------|--------------------------------------------|
|------------------|--------------------------------------------|
|------------------|--------------------------------------------|
|-13------(13)-----|-15-----------------(15)--------------------|
|-13------(13)-----|-13-----------------(13)--------------------|
|-11------(11)-----|-11-----------------(11)--------------------|
|
| Gtr VI
|  ~~~~~~~~~~~~~~~~          T   T T  T         T       T     T
|  Q  E Q      +E     S S S  S S S S  S   S  S  S S  S  S  S  S
|------------------|--------------------------------------------|
|------------------|--------------------------------------------|
|------------------|-----------8p3h8h11h=15p11------------15p11-|
|-13--8-8------(8)-|---------------------------13p8h13h16-------|
|------------------|--9p6h9h13----------------------------------|
|------------------|--------------------------------------------|


  B5                                        A5     G#5
   W                                        H      H
|-----------------------------------------|---------------|
|-----------------------------------------|---------------|
|-----------------------------------------|---------------|
|-11--------------------------------------|-9------8------|
|-11--------------------------------------|-9------8------|
|--9--------------------------------------|-7------6------|
|
|                           T        T ~
|  S  S  S  S  S  S  S  S   S  S  S  S Q    Q   Q  Q  Q
|-------------------------/21p16p13-------|---------------|
|-----------------------------------14p9--|-----9--7--6---|
|-----------------------------------------|-----x--x--x---|
|-13h15h16p15p13p11h13h15-----------------|-----x--x--x---|
|-----------------------------------------|-9S=11--9--8---|
|-----------------------------------------|---------------|


  F#m                            N.C.
 4/4                            3/4
  Gtr I
   W                             +H             +Q
|------------------------------|---------------------|
|------------------------------|---------------------|
|------------------------------|---------------------|
|--4---------------------------|-(4)------------(4)--|
|--4---------------------------|-(4)------------(4)--|
|--2---------------------------|-(2)------------(2)--|
|
| Gtr VI
|               ~~~~~~~~~~~~~~~
|  Q       +E   H         +E      H              Q
|------------------------------|---------------------|
|-17pb19r=(17)-17b19=====(17)r-|---------------------|
|------------------------------|---------------------|
|------------------------------|---------------------|
|------------------------------|---------------------|
|------------------------------|---------------------|
|
| Gtr III                      Gtr IV
|                                 |-3--|
|  W                              S  S S +Q   E  Q
|-!2---------------------------|--7------------------|
|-!2---------------------------|-----7---------------|
|-!2---------------------------|-------7-(7)---------|
|-!4---------------------------|---------------------|
|-!4---------------------------|--------------2------|
|-!2---------------------------|---------------------|


 Interlude
           B5                                          A5
 1/4      4/4
  Gtr I
           PM--|     PM--------------------|     PM|
   E E     E E E E E E E E   E E E E E E E E   E E E E Q  Q
|------||------------------|-----------------|----------------|
|------||o-----------------|-----------------|----------------|
|------||--4-4-4-4---4-4-4-|---4-4-4---4-4-4-|---4-4---2--2---|
|------||--4-4-4-4---4-4-4-|---4-4-4---4-4-4-|---4-4---2--2---|
|-/2s6s||o=2-2-2-2---2-2-2-|---2-2-2---2-2-2-|---2-2---0--0---|
|------||------------------|-----------------|----------------|
|
| Gtr IV
|  Q       E E E E E E E E   Q   E E E E E E   E E E E Q  E E
|------||--------0---------|---------------0-|-----3----------|
|------||o-1-------1---1---|---------1-------|-1-----1----1---|
|------||----2-------2---2-|-----2-----2-----|---------2----2-|
|------||------2-----------|-2-----2-----2---|---2------------|
|------||o-----------------|-----------------|----------------|
|------||------------------|-----------------|----------------|
|
| Gtr III
|  Q       E E E E E E E E   Q   E E E E E E   E E E E Q  E E
|------||--------2---------|---------------2-|-----5----------|
|------||o-3-------3---3---|---------3-------|-3-----3----3---|
|------||----4-------4---4-|-----4-----4-----|---------4----4-|
|------||------4-----------|-4-----4-----4---|---4------------|
|------||o-----------------|-----------------|----------------|
|------||------------------|-----------------|----------------|


  B5            G5              F#5
                     5/4
  Gtr I
  PM--|         PM----|         PM--|
  E E E Q   +E  E E   E Q   +E  E E E Q     +E
|-------------------|----------------------------||
|-------------------|---------------------------o||
|-4-4-4-4---(4)-----|----------------------------||
|-4-4-4-4---(4)-----|----------------------------||
|-2-2-2-2---(2)-5-5-|-5-5---(5)-4-4-4-4-----(4)-o||
|---------------3-3-|-3-3---(3)-2-2-2-2-----(2)--||
|
| Gtr IV
| E E E E E  E  E E   Q   Q     Q   Q   +Q
|-------0-----------|----------------------------||
|-1-------1-----0---|-0-------------------------o||
|---2--------2----2-|-----2-----2---1---(1)------||
|-----2-------------|----------------------------||
|-------------------|---------------------------o||
|-------------------|----------------------------||
|
| Gtr III
| E E E E E  E  E E   E E E  E  E E H
|-------2-----------|-------------9--------------||
|-3-------3-----2---|---7-------6---------------o||
|---4--------4----4-|-----8-/8-------------------||
|-----4-------------|-4--------------------------||
|-------------------|---------------------------o||
|-------------------|----------------------------||


 Pre-Chorus
  N.C.
 3/4
  Gtr I
  ~~~~~~~~~~~~~~~~~~~~~~~~~~~~~~~~~~~~~~~~~~~~~~~~
  H       +Q       H       +Q      H         +Q
|---------------|---------------|-------------------|
|---------------|---------------|-------------------|
|---------------|---------------|-------------------|
|-9-------(9)---|-11------(11)--|-13--------(13)\---|
|---------------|---------------|-------------------|
|---------------|---------------|-------------------|
|
| Gtr III
| E E E E  E  E    E E Q    Q      E E E  E   E   E
|-------2-------|--5--------5---|--5--------------9-|
|-3--------3----|----7----------|----7--------6-----|
|---4---------4-|------7--------|------8-/8---------|
|-----4---------|---------------|-------------------|
|---------------|---------------|-------------------|
|---------------|---------------|-------------------|


 Chorus
  N.C.
 4/4
  Gtr I
         PM|  ~~~~~~~~~~~~             PM       ~~~~~~~~~~
  Q  +E  E Q  E +E    +H        Q  +E  E   Q    H     +Q
|-------------------|--------------------|------------------|
|-------------------|--------------------|------------------|
|-------------------|--------------------|------------------|
|-------------------|--------------------|------------------|
|-------------------|--------------------|------------------|
|-2--(2)-4-5--4-(4)-|-(4)-------1--(1)-2-|-4----2-----(2)---|
|
| Gtr IV
| Q   Q    Q  Q        E  E E E H          E  E Q  Q   Q
|-------------------|--------------------|------------------|
|-------------------|--------------------|------------------|
|-9---9----9--7-----|--4--2--------------|------------------|
|-9---9----9--7-----|-------5-4-9--------|-9-10-9--9---9----|
|-------------------|-----------9--------|-9--9-9--7---7----|
|-------------------|--------------------|------------------|
|
| Gtr III
| W                    W                   W
|-------------------|--------------------|------------------|
|-------------------|--------------------|------------------|
|-------------------|--------------------|------------------|
|-------------------|--------------------|------------------|
|-------------------|--------------------|------------------|
|-------------------|--------------------|------------------|


  N.C.
 4/4
  Gtr I
       ~~~~~
   Q   Q  Q   Q       +W
|------------------|--------------------------|
|------------------|--------------------------|
|------------------|--------------------------|
|------------12----|-(12)---------------------|
|------------12----|-(12)---------------------|
|-14--12--9--10----|-(10)---------------------|
|
| Gtr IV
|  H      Q   E  E    +E   E  Q   E  Q      E
|------------------|--------------------------|
|------------------|--------------------------|
|------------------|--------------------------|
|--9------9--10-10-|-(10)-10-10--12-12-----12-|
|--7------9--10-10-|-(10)-10-10--10-10-----10-|
|------------------|--------------------------|
|
| Gtr III
|  H      Q   E  E    +E   E  Q   E  E +E   E
|------------------|--------------------------|
|-------------7----|--------------9-----------|
|----------------7-|--(7)------------7-(7)----|
|------------------|-------7----------------7-|
|------------------|----------9---------------|
|------------------|--------------------------|


 7/4
                 PM ~~~~~~~~~~~~~~
   +Q    E +Q    E  Q  H      +Q
|----------------------------------|
|----------------------------------|
|----------------------------------|
|-(12)---9-(9)---------------------|
|-(12)---9-(9)---------------------|
|-(10)---7-(7)---9-10--9------(9)--|
|
|   Q    E  Q    E  Q  E Q  E  Q
|----------------------------------|
|----------------------------------|
|----------------------------------|
|--12---10-10---10-10--9-9--9--9---|
|--10---10-10---10-10--9-9--9--9---|
|----------------------------------|
|
|   Q    E  Q    E  Q  H      +Q
|----------------------------------|
|--------7---------10--------------|
|-----------7----7-----6------(6)--|
|----------------------------------|
|--12------------------------------|
|----------------------------------|


  N.C.
 4/4
  Gtr I
         PM|  ~~~~~~~~~~~~             PM       ~~~~~~~~~~
  Q  +E  E Q  E +E    +H        Q  +E  E   Q    H     +Q
|-------------------|--------------------|------------------|
|-------------------|--------------------|------------------|
|-------------------|--------------------|------------------|
|-------------------|--------------------|------------------|
|-------------------|--------------------|------------------|
|-2--(2)-4-5--4-(4)-|-(4)-------1--(1)-2-|-4----2-----(2)---|
|
| Gtr IV
| Q   Q    Q  Q        E  E E E H          E  E Q  Q   Q
|-------------------|--------------------|------------------|
|-------------------|--------------------|------------------|
|-9---9----9--7-----|--4--2--------------|------------------|
|-9---9----9--7-----|-------5-4-9--------|-9-10-9--9---9----|
|-------------------|-----------9--------|-9--9-9--7---7----|
|-------------------|--------------------|------------------|
|
| Gtr III
| W                    W                   W
|-------------------|--------------------|------------------|
|-------------------|--------------------|------------------|
|-------------------|--------------------|------------------|
|-------------------|--------------------|------------------|
|-------------------|--------------------|------------------|
|-------------------|--------------------|------------------|


  N.C.
 4/4
  Gtr I
       ~~~~~
   Q   Q  Q   Q       +W
|------------------|--------------------------|
|------------------|--------------------------|
|------------------|--------------------------|
|------------12----|-(12)---------------------|
|------------12----|-(12)---------------------|
|-14--12--9--10----|-(10)---------------------|
|
| Gtr IV
|  H      Q   E  E    +E   E  Q   E  Q      E
|------------------|--------------------------|
|------------------|--------------------------|
|------------------|--------------------------|
|--9------9--10-10-|-(10)-10-10--12-12-----12-|
|--7------9--10-10-|-(10)-10-10--10-10-----10-|
|------------------|--------------------------|
|
| Gtr III
|  H      Q   E  E    +E   E  Q   E  E +E   E
|------------------|--------------------------|
|-------------7----|--------------9-----------|
|----------------7-|--(7)------------7-(7)----|
|------------------|-------7----------------7-|
|------------------|----------9---------------|
|------------------|--------------------------|


 7/4
   +W                    +H         +Q
|----------------------------------------|
|----------------------------------------|
|----------------------------------------|
|-(12)------------------(12)-------(12)--|
|-(12)------------------(12)-------(12)--|
|-(10)------------------(10)-------(10)--|
|
|   Q    E  Q   E  Q      E  Q   E   Q
|----------------------------------------|
|----------------------------------------|
|----------------------------------------|
|--12---10-10--10-10------9--9---9---9---|
|--10---10-10--10-10------9--9---9---9---|
|----------------------------------------|
|
|   Q    E  H         E   E  E Q     Q
|----------------------------------------|
|--------7-----------10--------------7---|
|-----------7-------------7----7---------|
|----------------------------7-----------|
|--12------------------------------------|
|----------------------------------------|


 Bridge
  N.C.
 4/4
  Gtr I
   ~~                ~~                  ~~
   H           +Q    Q       +H          H
|-------------------------|-------------------------|
|-------------------------|-------------------------|
|-------------------------|-------------------------|
|-------------------------|-------------------------|
|-------------------------|-------------------------|
|-13----------(13)--15----|-(15)--------15----------|
|
| Gtr III
|  E  E  E  E   Q    E  E     E   E  Q   E  E  E  E
|-------------------------|-------------------------|
|--9------------9---11----|---------11--11----------|
|----10----10----------12-|------12--------12----12-|
|-------10----------------|--13---------------13----|
|-------------------------|-------------------------|
|-------------------------|-------------------------|
|
| Gtr IV
|  E  E  E  E   Q    E  E     E   E  Q   E  E  E  E
|-------------------------|-------------------------|
|--7------------7----9----|----------9---9----------|
|-----8-----8----------10-|------10--------10----10-|
|--------8----------------|--11---------------11----|
|-------------------------|-------------------------|
|-------------------------|-------------------------|


         ~~                  ~~                ~~
   +Q    H           +Q      H           +Q    Q
|-------------------------|-------------------------|
|-------------------------|-------------------------|
|-------------------------|-------------------------|
|-------------------------|-------------------------|
|-------------------------|-------------------------|
|-(15)--16----------(16)--|-17----------(17)--18----|
|
|   Q    E  E  E  E   Q      E  E  E  E   Q    E  E
|-------------------------|-------------------------|
|--11---13-----------13---|-13-----------13---15----|
|----------13----13-------|----14----14----------15-|
|-------------13----------|-------16----------------|
|-------------------------|-------------------------|
|-------------------------|-------------------------|
|
|   Q    E  E  E  E   Q      E  E  E  E   Q    E  E
|-------------------------|-------------------------|
|---9---11-----------11---|-11-----------11---13----|
|----------11----11-------|----12----12----------13-|
|-------------11----------|-------14----------------|
|-------------------------|-------------------------|
|-------------------------|-------------------------|


  N.C.
 4/4
  Gtr I
               ~~~~~~~~~~~~~~~~~~~
   +H          H             +Q    H          +Q
|-------------------------|----------------------------|
|-------------------------|----------------------------|
|-------------------------|----------------------------|
|-------------------------|-------10---------(10)------|
|-------------------------|-------10---------(10)------|
|-(18)--------19----------|-(19)s==8----------(8)------|
|
| Gtr III                 Gtr II
|   E   E  Q   E  E  E  E     Q    H          +Q
|-------------------------|----------------------------|
|---------15--15----------|----------------------------|
|------15--------16----16-|--------3----------(3)------|
|--15---------------17----|--------3----------(3)------|
|-------------------------|--------1----------(1)------|
|-------------------------|----------------------------|
|
| Gtr IV
|   E   E  Q   E  E  E  E     Q    Q  +E   Q       +E
|-------------------------|----------------------------|
|---------13--13----------|--13------------------------|
|------13--------14----14-|--------7--(7)--9-------(9)-|
|--13---------------15----|--------8--(8)-10------(10)-|
|-------------------------|----------------------------|
|-------------------------|----------------------------|


 5/4
                               >
   +W                         +Q
|-------------------------------------|
|-------------------------------------|
|-------------------------------------|
|-(10)-----------------------(10)-----|
|-(10)-----------------------(10)-----|
|--(8)------------------------(8)-----|
|
|  +W                         +Q
|-------------------------------------|
|-------------------------------------|
|--(3)------------------------(3)-----|
|--(3)------------------------(3)-----|
|--(1)------------------------(1)-----|
|-------------------------------------|
|
|   E   +E   Q   +E   E  E Q      +E
|-------------------------------------|
|--------------------10---------------|
|--10--(10)--9---(9)-10-10------------|
|--10--(10)-10--(10)-------8------(8)-|
|-------------------------------------|
|-------------------------------------|


 Intro Recap
  B5
 4/4
  Gtr II
   W                         +W
   |                          |
   /                          /

  Gtr I
           \0.5/
                       ~~~~~~~~~~                ~~~~~~~~
                                        |--3--|
   Q   +E  Q      +E   Q     +Q    +E   S  S  S  Q   +E  S T T
|-------------------------|------------------------------------|
|-------------------------|----------------------------------x-|
|-------------------------|--------------------------------x---|
|-11--(11)s6------(6)s18--|-(18)--(18)-17-18p17-15--(15)-x-----|
|-------------------------|------------------------------------|
|-------------------------|------------------------------------|


  A5
   W
   |
   /

           \0.5/
                          |-3-|
   E  +E   E      Q   E e S S S
|-13-(13)h14S====11--/7----------|
|-----------------------6-6h7p6--|
|--------------------------------|
|--------------------------------|
|--------------------------------|
|--------------------------------|


  A5                   G5
 4/4
  +W                   W                    +W
   |                   |                     |
   /                   /                     /

  Gtr I
   ~~~~~~~~~~~~~~      ~~~~~~~
                                 |-3-|
   H    +Q   +E  S S   Q  +E  Q  S S S Q    +H     +Q   E E
|--------------------|--------------------|------------------|
|--4----(4)--(4)-----|--------------------|------------------|
|----------------6-8-|-9--(9)-8--8h9p8-6--|-(6)----(6)--4-6--|
|--------------------|--------------------|------------------|
|--------------------|--------------------|------------------|
|--------------------|--------------------|------------------|


 Guitar Solo II
  C5
 3/4
  Gtr II
  H        +Q     +H       +Q     +H        +Q
  |         |      |        |      |         |
  /         /      /        /      /         /

  Gtr I
  ~~
  H         Q      H        Q      H         Q
|---------------|---------------|----------------|
|---------------|---------------|----------------|
|-7\------------|---------------|----------------|
|---------------|---------------|----------------|
|---------------|---------------|----------------|
|---------------|---------------|----------------|
|
| Gtr IV
| E  E E E  E E    E E E E  E E    E E E  E  E E
|----------10-8-|----7----------|-----------10-8-|
|-7--8---7------|-10---8----7-8-|----7---10------|
|------9--------|--------9------|--9---7---------|
|---------------|---------------|----------------|
|---------------|---------------|----------------|
|---------------|---------------|----------------|


  C5
 3/4
  +H       +Q      +H            +Q            +H                       +Q
   |        |       |             |             |                        |
   /        /       /             /             /                        /

  Gtr I
                                     \0.75/         \0.75/       \0.75/
            ~~~~~~~~~~~~~~~~~~~
   H        Q      +Q     +Q      E  e         +e   e       +e   q          E
|----------22---|-(22)---(22)\------14------|-(14)-16------(16)-12---------14-|
|---------------|---------------------------|---------------------------------|
|---------------|---------------------------|---------------------------------|
|---------------|---------------------------|---------------------------------|
|---------------|---------------------------|---------------------------------|
|---------------|---------------------------|---------------------------------|
|
| Gtr IV
|  E E E E  E E     E  E   E   E  E  E          E   E        E   E       E  E
|----------10-8-|------7--------------------|---------------------------10--8-|
|--7-8---7------|--10------8------7--8------|-------7-----------10------------|
|------9--------|--------------9------------|---9------------7----------------|
|---------------|---------------------------|---------------------------------|
|---------------|---------------------------|---------------------------------|
|---------------|---------------------------|---------------------------------|


  C5
  +H             +Q       +H         +Q     +H                    +Q
   |              |        |          |      |                     |
   /              /        /          /      /                     /

  Gtr I
                                 <
            ~~~~~~~~~~~~~~~~~~~
   e  S  S  Q    +Q       +Q     H          +E   S  S  S  S  S  S  S  S  S  S
|----------------------|------------------|-----17-17-17s14-14-14-14s16-16-16-|
|-10-10h12p10---(10)---|-(10)\------------|-----------------------------------|
|----------------------|------------------|-----------------------------------|
|----------------------|---------7--------|-(7)-------------------------------|
|----------------------|---------7--------|-(7)-------------------------------|
|----------------------|---------5--------|-(5)-------------------------------|
|
| Gtr IV
|  E  E     E E   E  E     E   E E E  E E    E   E     E     E     E     E
|----------------10--8-|-------7----------|-----------------------10-----8----|
|--7--8-------7--------|--10-----8----7-8-|------7----------10----------------|
|-----------9----------|-----------9------|--9---------7----------------------|
|----------------------|------------------|-----------------------------------|
|----------------------|------------------|-----------------------------------|
|----------------------|------------------|-----------------------------------|


  C5
  +H                      +Q
   |                       |
   /                       /

  Gtr I
   S  S  S  S  S  S  S  S  S  S  S  S
|-14s12-12-12-12s14-17-17-17s14-14-14-|
|-------------------19-19-19s14-14-14-|
|-------------------------------------|
|-------------------------------------|
|-------------------------------------|
|-------------------------------------|
|
| Gtr IV
|  E     E     E     E     E     E
|-------------------------10-----8----|
|--7-----8-----------7----------------|
|--------------9----------------------|
|-------------------------------------|
|-------------------------------------|
|-------------------------------------|


  +H                      +Q            +H                     +Q
   |                       |             |                      |
   /                       /             /                      /

                                   Gtrs I, V
   S  S  S  S  S  S  S  S  S  S  S  S    S  S  S  S  S  S   Q      +E
|-14s16-16-16-14s12-12-12-12s14-14-14-|-14s12-12-12-12s14--10-----(10)--|
|-14s17-17-17-14s12-12-12-12-14-14-14-|-14s12-12-12-12s14-(10)----(10)--|
|-------------------------------17-17-|-17-14-14-14-14-16-(10)----(10)--|
|-------------------------------------|---------------------------------|
|-------------------------------------|---------------------------------|
|-------------------------------------|---------------------------------|
|
|  E     E     E     E     E     E       E     E     E      E   E   E
|--------7----------------------------|------------------------10---8---|
|-10-----------8-----------7-----8----|--------7-----------10-----------|
|--------------------9----------------|--9-----------7------------------|
|-------------------------------------|---------------------------------|
|-------------------------------------|---------------------------------|
|-------------------------------------|---------------------------------|


  C5
   +H          +Q      +H         +Q      +H          +Q
    |           |       |          |       |           |
    /           /       /          /       /           /

  Gtr I
    H           Q       E  E E  E  Q      +H          +Q
|-(10)--------(10)---|-----------------|--------------------|
|-(10)--------(10)---|-----------------|--------------------|
|--------------------|-----------------|--------------------|
|--------------------|----h0-7s16s19---|-(19)--------(19)---|
|--------------------|-----------------|--------------------|
|--------------------|-----------------|--------------------|
|
| Gtr V
|   Q    E  E   E  E    Q    H             W
|--------------------|-----------------|--------------------|
|--------------------|-----------------|--------------------|
|--------------------|-----------------|--------------------|
|----------h0---7s16s|=12--------------|--------------------|
|--------------------|-----------------|--------------------|
|--------------------|-----------------|--------------------|
|
| Gtr IV
|   E  E E  E   E  E    E  E E  E  E E     E  E E  E   E  E
|--------------10--8-|-----7-----------|--------------10--8-|
|---7--8----7--------|-10----8-----7-8-|------7---10--------|
|--------9-----------|----------9------|---9----7-----------|
|--------------------|-----------------|--------------------|
|--------------------|-----------------|--------------------|
|--------------------|-----------------|--------------------|


  C5
  +H                    +Q         +H                +Q
   |                     |          |                 |
   /                     /          /                 /

  Gtr I
   PM----------------------|        PM------------|
   S  S  S S  S  S  s s  s s s S    S s s s s s S  s  S  S  S  S
|----------9-10------------------|-------------------------------|
|-------10------10------10-7-----|--7-3--------------------15-16-|
|----11------------11-7------7---|------4-------------9-14-------|
|-12---------------------------7-|--------4-----7-12-------------|
|--------------------------------|----------5-8------------------|
|--------------------------------|-------------------------------|
|
| Gtr IV
|  E     E    E     E    E   E      E   E   E   E     E     E
|-----------------------10---8---|------7------------------------|
|--7-----8----------7------------|-10-------8---------7-----8----|
|-------------9------------------|--------------9----------------|
|--------------------------------|-------------------------------|
|--------------------------------|-------------------------------|
|--------------------------------|-------------------------------|


  +H                      +Q            +H                      +Q
   |                       |             |                       |
   /                       /             /                       /

   S  S  S  S  S  S  S  S  S  S  S  S    S  S  S  S  S  S  S  S  S  S  E
|-------------------------------------|--------------------------------------|
|-17-18-19-20-21-20-19-18-17-14----17-|-14-------14--------------------------|
|-------------------------------14----|----14-11----14-11----14-11-----------|
|-------------------------------------|-------------------12-------11--------|
|-------------------------------------|-------------------------------11\----|
|-------------------------------------|--------------------------------------|
|
|  E     E     E     E     E     E       E     E     E     E     E     E
|-------------------------10-----8----|-------------------------10-----8-----|
|--------7----------10----------------|--7-----8-----------7-----------------|
|--9-----------7----------------------|--------------9-----------------------|
|-------------------------------------|--------------------------------------|
|-------------------------------------|--------------------------------------|
|-------------------------------------|--------------------------------------|


  E5
 4/4
  Gtr I
   W
   |
   /

  Gtr VI
                                         /
   E  T  S  T  T   T T T T T T T T T T T Q     +E
|--------------------------------------------------|
|--------------------------------------------------|
|-14-14p13p11h13p=11p8h9p8p6h8p6p4h5p4p2-4-----(4)-|
|--------------------------------------------------|
|--------------------------------------------------|
|--------------------------------------------------|
|
| Gtr III
|  Q          +E         E       E       E  Q
|------------------------4-------------------------|
|--------------------------------5----------7------|
|--6----------(6)------------------------6---------|
|--------------------------------------------------|
|--------------------------------------------------|
|--------------------------------------------------|
|
| Gtr IV
|  Q           E         E       E       E +Q
|--------------2-----------------------------------|
|------------------------3---------------2-(2)-----|
|--4-----------------------------4-------2-(2)-----|
|--------------------------------------------------|
|--------------------------------------------------|
|--------------------------------------------------|


                                         D5
  +W                   +H                Q      Q
   |                    |                |      |
   /                    /                /      /

                        |
           ~~~~~~~~~~~~~~~~
                            |-3--|
  +H       H           +E   S  S S Q     Q      E   E
|--------------------|---------------------------------|
|--------------------|---------------------------------|
|-(4)-----[4]--------|-(4)--4h=5p2-------------/6---4--|
|--------------------|-------------6-----2-------------|
|--------------------|---------------------------------|
|--------------------|---------------------------------|
|
| +Q   Q   Q   +E  E    E   E      H           +Q
|------------------4-|-------------7-----------(7)-----|
|-(7)--4-------------|--5------------------------------|
|----------6---(6)---|------6--------------------------|
|--------------------|---------------------------------|
|--------------------|---------------------------------|
|--------------------|---------------------------------|
|
| +Q   Q   Q    E  E    E   Q         E  E +E   E   E
|---------------2----|---------------------------------|
|-(2)--2---3-------3-|------3--------(3)-3-(3)--2--(2)-|
|-(2)--2---4---------|--4--(4)--------4-------------2--|
|--------------------|---------------------------------|
|--------------------|---------------------------------|
|--------------------|---------------------------------|


  E5
  Gtr I
   W
   |
   /

  Gtr VI
   ~~~
   H         S S S T T T S T T T T T
|------------------------------------|
|------------------------------------|
|------------------------------------|
|--4---------------------------------|
|------------2h4h5p4p2p0-----2h4h5h7-|
|------------------------4p2---------|
|
| Gtr III
|  Q   +E  E E   E     Q
|----------4-----------5-------------|
|------------5-----------------------|
|--6---(6)-------6-------------------|
|------------------------------------|
|------------------------------------|
|------------------------------------|
|
| Gtr IV
|  H         Q         Q
|------------------------------------|
|--2---------3---------3-------------|
|-(2)--------------------------------|
|------------------------------------|
|------------------------------------|
|------------------------------------|


 5/4
  +W                                                                +Q
   |                                                                 |
   /                                                                 /

   T    T           T   T           T   T           T   T            T      T
   T  T T T T T T T T T T T T T T T T T T T T T T T T T T T T T T T  T   T  T  T  T T  T  T
|----------------------------------------------------------------------------------------------|
|-------------------------------------------------------------------13p=12h13p12p10p9h10h12----|
|----------------------------------------------------------------------------------------------|
|-----------------------------------5p4h5p4p2p0h2h4h8p4h8p4p2p0h2h4----------------------------|
|----------------------------------------------------------------------------------------------|
|--5p=4h5p4p2p0h2h4h7p4h7p4p2p0h2h4------------------------------------------------------------|
|
| +Q                Q               H                               +Q
|-(5)-------------------------------4-------------------------------(4)------------------------|
|-------------------5--------------------------------------------------------------------------|
|----------------------------------------------------------------------------------------------|
|----------------------------------------------------------------------------------------------|
|----------------------------------------------------------------------------------------------|
|----------------------------------------------------------------------------------------------|
|
|  Q                Q               Q               Q               +Q
|----------------------------------------------------------------------------------------------|
|--2-------------------------------------------------------------------------------------------|
|-------------------4---------------4---------------3---------------(3)------------------------|
|----------------------------------------------------------------------------------------------|
|----------------------------------------------------------------------------------------------|
|----------------------------------------------------------------------------------------------|


  E5
 4/4
  Gtr I
   W
   |
   /

  Gtr VI
         T     T           T      T           T     T
   T  T  T  T  T  T  T  T  T   T  T  T  T  T  T  T  T  T  T  T  T  T   E           +S    E
|---------------------------------------------------------------------------------------17-|
|-12-13-19-13-19-13-12-10-13--12-13-12-10-12-19-13-19-13-11-10-12-10-/19pb21======(19)r----|
|------------------------------------------------------------------------------------------|
|------------------------------------------------------------------------------------------|
|------------------------------------------------------------------------------------------|
|------------------------------------------------------------------------------------------|
|
| Gtr III
|  Q                      +E            E           E           E              Q
|---------------------------------------4--------------------------------------------------|
|---------------------------------------------------5--------------------------7-----------|
|--6----------------------(6)-----------------------------------6--------------------------|
|------------------------------------------------------------------------------------------|
|------------------------------------------------------------------------------------------|
|------------------------------------------------------------------------------------------|
|
| Gtr IV
|  Q                       E            E           E           E             +Q
|--------------------------2---------------------------------------------------------------|
|---------------------------------------3-----------------------2-------------(2)----------|
|--4------------------------------------------------4-----------2-------------(2)----------|
|------------------------------------------------------------------------------------------|
|------------------------------------------------------------------------------------------|
|------------------------------------------------------------------------------------------|


  +W
   |
   /

   ~~~~~~~~~
                            |--3--|
   Q    +E   S  S   Q   E   S  S  S
|-------------------------------------|
|-19---(19)-12-14-/15S=14--10-12p10---|
|-------------------------------------|
|-------------------------------------|
|-------------------------------------|
|-------------------------------------|
|
| +Q     Q          Q  +E   E
|---------------------------4---------|
|-(7)----4----------------------------|
|-------------------6--(6)------------|
|-------------------------------------|
|-------------------------------------|
|-------------------------------------|
|
| +Q     Q          Q   E   E
|-----------------------2-------------|
|-(2)----2----------3-------3---------|
|-(2)----2----------4-----------------|
|-------------------------------------|
|-------------------------------------|
|-------------------------------------|


  E5              D5                   E5
 4/4                                  3/4
  Gtr I
  +H              Q      Q              H         +Q
   |              |      |              |          |
   /              /      /              /          /

  Gtr VI
                                        ~~~
                             |--3--|
   Q      E  +H              S   S S    H          E E
|------------------------------------|-----------------|
|-12-----10-(10)\------------9h=10p9-|--7--------------|
|------------------------------------|-------------4-6-|
|------------------------------------|-----------------|
|------------------------------------|-----------------|
|------------------------------------|-----------------|
|
| Gtr III
|  E  E   H             +Q              Q   +E  E  E E
|---------7-------------(7)----------|----------4------|
|--5---------------------------------|-------------5---|
|-----6------------------------------|--6---(6)------6-|
|------------------------------------|-----------------|
|------------------------------------|-----------------|
|------------------------------------|-----------------|
|
| Gtr IV
|  E  Q       E   E +E   E   E          H          Q
|------------------------------------|-----------------|
|-----3------(3)--3-(3)--2--(2)------|--2----------4---|
|--4-(4)------4--------------2-------|-(2)-------------|
|------------------------------------|-----------------|
|------------------------------------|-----------------|
|------------------------------------|-----------------|


  C5(type 2)          B5(type 2)
  H           +Q       H        +Q
  |            |       |         |
  /            /       /         /

                             ~~
  E  E  E   E  E  E    E  E  H
|-------------------|-----------------|
|-------------19s21-|-21s22-19--------|
|-9s11-11s=13-------|-----------------|
|-------------------|-----------------|
|-------------------|-----------------|
|-------------------|-----------------|
|
| Q    +Q      Q       Q     Q  +Q
|-------------------|-----------------|
|-6----(6)-----5----|-----------------|
|-------------------|--7-----6--(6)---|
|-------------------|-----------------|
|-------------------|-----------------|
|-------------------|-----------------|
|
| Q     Q      Q       Q     Q  +Q
|-------------------|-----------------|
|-4-----3-----------|-----------------|
|--------------5----|--5-----4--(4)---|
|-------------------|-----------------|
|-------------------|-----------------|
|-------------------|-----------------|


 Pre-Chorus
  N.C.
 3/4
  Gtr I
   ~~~~~~~~~~~~~~~~~~~~~~~~~~~~~~~~~~~~~
   H                      +Q
|--------------------------------------|
|--------------------------------------|
|--------------------------------------|
|--9----------------------(9)----------|
|--------------------------------------|
|--------------------------------------|
|
| Gtr III
|  E     E     E     E     E      E
|--------------------2-----------------|
|--3-----------------------3-----------|
|--------4------------------------4----|
|--------------4-----------------------|
|--------------------------------------|
|--------------------------------------|
|
| Gtr V
|  S  S  S  S  S  S  S  S  S   S  S  S
|-16-17-14-17-12-17----17-----17----12-|
|-------------------15----14-----12----|
|--------------------------------------|
|--------------------------------------|
|--------------------------------------|
|--------------------------------------|


 ~~~~~~~~~~~~~~~~~~~~~~~~~~~~~~~~~~~~~~~~~~~~~~~~~~~~~~~~~~~~~~~
   H                       +Q            H                 +Q
|-------------------------------------|--------------------------------|
|-------------------------------------|--------------------------------|
|-------------------------------------|--------------------------------|
|-11----------------------(11)--------|-13----------------(13)\--------|
|-------------------------------------|--------------------------------|
|-------------------------------------|--------------------------------|
|
|  E     E     Q            Q            E   E   E    E     E     E
|--5------------------------5---------|--5------------------------9----|
|--------7----------------------------|------7--------------6----------|
|--------------7----------------------|----------8---/8----------------|
|-------------------------------------|--------------------------------|
|-------------------------------------|--------------------------------|
|-------------------------------------|--------------------------------|
|
|  S  S  S  S  S  S  S  S   S   S S S    S S S S S S  S S   S   S S S
|-10-12----12----12----12------12---7-|--5-7-3-7---7----7-------4---2--|
|-------14----12----10------9-----7---|----------7----5-----4-----2----|
|-------------------------------------|--------------------------------|
|-------------------------------------|--------------------------------|
|-------------------------------------|--------------------------------|
|-------------------------------------|--------------------------------|


   Chorus
    N.C.
   4/4
    Gtr I
           PM|  ~~~~~~~~~~~~             PM
    Q  +E  E Q  E +E    +H        Q  +E  E
||--------------------|--------------------|
||o-------------------|--------------------|
||--------------------|--------------------|
||--------------------|--------------------|
||o-------------------|--------------------|
||--2--(2)-4-5--4-(4)-|-(4)-------1--(1)-2-|
|
|   Gtr IV
|   Q   Q    Q  Q        E  E E E H
||--------------------|--------------------|
||o-------------------|--------------------|
||--9---9----9--7-----|--4--2--------------|
||--9---9----9--7-----|-------5-4-9--------|
||o-------------------|-----------9--------|
||--------------------|--------------------|
|
|   Gtr III
|   W                    W
||--------------------|--------------------|
||o-------------------|--------------------|
||--------------------|--------------------|
||--------------------|--------------------|
||o-------------------|--------------------|
||--------------------|--------------------|


       ~~~~~~~~~~~~        ~~~~~
  Q    Q  +Q   +Q      Q   Q  Q   Q
|-------------------|-------------------|
|-------------------|-------------------|
|-------------------|-------------------|
|-------------------|------------12-----|
|-------------------|------------12-----|
|-4----2--(2)--(2)--|-14--12--9--10-----|
|
| E  E Q   Q    Q      H      Q   E  E
|-------------------|-------------------|
|-------------------|-------------------|
|-------------------|-------------------|
|-9-10-9---9----9---|--9------9--10-10--|
|-9--9-9---7----7---|--7------9--10-10--|
|-------------------|-------------------|
|
| W                    H      Q   E  E
|-------------------|-------------------|
|-------------------|-------------7-----|
|-------------------|----------------7--|
|-------------------|-------------------|
|-------------------|-------------------|
|-------------------|-------------------|


                        1.
  N.C.
 4/4                         7/4
  Gtr I
                                             PM ~~~~~~~~~~~~~~
   +W                          +Q    E +Q    E  Q  H      +Q
|---------------------------|-----------------------------------||
|---------------------------|----------------------------------o||
|---------------------------|-----------------------------------||
|-(12)----------------------|-(12)---9-(9)----------------------||
|-(12)----------------------|-(12)
Добавлено: 22.04.2012
Другие материалы по этой песне:

Страница создана 26.03.2012
http://primanota.ru/symphony-x/whispers-chords.htm
Привет, Гость.
Предлагаем пройти революционный курс по гитаре.
Подарок от PrimaNota.Ru, забирай!