PrimaNota.ru - самый крупный в мире бесплатный архив песенных текстов, аккордов, табулатур и нот


Symphony X - Kiss Of Fire - таба, видео

Регистрация Запомнить меня
Войти через:  Facebook Google Twitter Vk Yandex Mail.ru

Symphony X - Kiss Of Fire - таба, видео

Печатать
Просмотров: 180
Авторы музыки: Michael Romeo
Авторы текста: Michael LePond, Michael Romeo
Kiss of Fire -Symphony X

This is my first tab, so it may not be perfect.  There may be a few minor errors, but this will certainly get 
you pointed in the right direction.  I may have a go at tabbing out the solo later on.  

E-mail: danajerpbak@yahoo.com

Tuning: D G C F A d (standard D tuning)

Main riff x2

d|------------------------------------|------------------------------|
A|------------------------------------|------------------------------|
F|------------------------------------|------------------8-8-8-8-8-8-|
C|------------------------------------|------------------8-8-8-8-8-8-|
G|2-----------------2-----------------|2-----------------6-6-6-6-6-6-|
D|0--0--0--6h8p6p5--0--0--0--6h8p6p5--|0--0--0--6h8p6p5--------------|

d|------------------------------------|
A|------------------------------------|
F|------------------------------------|
C|------------------------------------|
G|2-----------------2-----------------|
D|0--0--0--6h8p6p5--0--0--0--6h8p6p5--|

d|--------------------------------------------------|
A|--------------------------------------------------|
F|--------------------------------------------------|
C|--------------------------------------------------|
G|2-----------------3-3-------------2-2-------------|
D|0--0--0--6h8p6p5------3-3-3-3-3-3-----1-1-1-1-1-1-|

Transition x1

d|---------------|---------------|----------|--------------|-----|
A|---------------|---------------|----------|--------------|-----|
F|---------------|---------------|----------|--------------|-----|
C|---------------|----------6----|5---------|--------------|-----|
G|5----8----4----|5----8----4----|3----4----|4--7--4--3----|2----|
D|3----6----2----|3----6---------|-----2----|2--5--2--1----|0----|

Bass intro

Verse riff x3

d|--------------------------------------------|
A|--------------------------------------------|
F|--------------------------------------------|
C|9---------------9--9------------------------|
G|7---------------7--7------------------------|
D|---0--6b7b6--0--------6b7b6----0--0-0-0--0--|

d|----------------------------------------|
A|----------------------------------------|
F|----------------------------------------|
C|9---------------9--9--------------------|
G|7---------------7--7--------------------|
D|---0--6b7b6--0--------0--0--0--0--0--0--|

d|--------------------------------------------|
A|--------------------------------------------|
F|--------------------------------------------|
C|9---------------9--9------------------------|
G|7---------------7--7------------------------|
D|---0--6b7b6--0--------6b7b6----0--0-0-0--0--|

d|------------------------------------|
A|------------------------------------|
F|------------------------------------|
C|9---------------9--9----------------|
G|7---------------7--7--------8s10s8--|
D|---0--6b7b6--0--------0--0----------|

Chorus (main riff x2)

Verse riff x2

Replace the last bit of the verse riff with a pick slide down the lowest string the second time around.

Chorus (main riff x2)

Bridge x1

d|---------------|---------------|---------------|---------------|
A|---------------|---------------|---------------|---------------|
F|---------------|---------------|5--------------|5--------------|
C|---------------|----------6----|3----7----6----|3----7----6----|
G|5----8----4----|5----8----4----|-----5----4----|-----5----4----|
D|3----6----2----|3----6---------|---------------|---------------|

d|---------------|----------|
A|---------------|----------|
F|---------------|----------|
C|5----6----5----|----------|
G|3----4----3----|6----5----|
D|---------------|4----3----|

Breakdown riff 1 x1

d|------------------------------------|-------------------------------------|
A|------------------------------------|-------------------------------------|
F|------------------------------------|-------------------------------------|
C|------------------------------------|---------3-3-4-4-3-------------------|
G|---------3--3--3-----------3--3--3--|---------1-1-2-2-1----------3--3--3--|
D|3h4p3p1--1--1--1--3h4p3p1--1--1--1--|3h4p3p1------------3h4p3p1--1--1--1--|

d|-----------------|
A|-----------------|
F|-----------------|
C|------------3----|
G|---------3--2----|
D|3h4p3p1--1-------|

Breakdown riff 2 x4

d|------------------------------------|------------------------------------|
A|------------------------------------|------------------------------------|
F|------------------------------------|------------------------------------|
C|------------------------------------|------------------------------------|
G|---------3--3--3-----------3--3--3--|---------3--3--3-----------3--3--3--|
D|3h4p3p1--1--1--1--3h4p3p1--1--1--1--|6h7p6p4--1--1--1--3h4p3p1--1--1--1--|

d|------------------------------------|------------------------------------|
A|------------------------------------|------------------------------------|
F|---------------------------9--9--9--|------------------------------------|
C|---------------------------9--9--9--|------------------------------------|
G|---------3--3--3--6--2--2--7--7--7--|---------3--3--3-----------3--3--3--|
D|3h4p3p1--1--1--1--4--0--0-----------|3h4p3p1--1--1--1--3h4p3p1--1--1--1--|

d|------------------------------------|-------------------------|
A|------------------------------------|-------------------------|
F|------------------------------------|-------------------------|
C|------------------------------------|-------------------------|
G|---------3--3--3-----------3--3--3--|-------------------------|
D|6h7p6p4--1--1--1--3h4p3p1--1--1--1--|3h4p3p1-2b3-3-3-3-3-3-3--|

Solo rhythm part 1 x4

d|-----------------------------|----------------------------|
A|-----------------------------|----------------------------|
F|-----------------------------|----------------------------|
C|-----------------------------|----------------------------|
G|-----------------------------|----------------------------|
D|3-3-1-0--5-5-3-0--3-3-1-0--0-|3-3-1-0--5-5-3-0--3-3-6--1--|


Solo rhythm part 2 x1

d|--------------------------------------------|
A|--------------------------------------------|
F|9---------------9--9------------------------|
C|7---------------7--7------------------------|
G|---0--6b7b6--0--------6b7b6----0--0-0-0--0--|
D|--------------------------------------------|

d|----------------------------------------|
A|----------------------------------------|
F|9---------------9--9--------------------|
C|7---------------7--7--------------------|
G|---0--6b7b6--0--------0--0--0--0--0--0--|
D|----------------------------------------|

d|--------------------------------------------|
A|--------------------------------------------|
F|9---------------9--9------------------------|
C|7---------------7--7------------------------|
G|---0--6b7b6--0--------6b7b6----0--0-0-0--0--|
D|--------------------------------------------|

d|-------------------------------|
A|-------------------------------|
F|9---------------9--8--8--8--8--|
C|7---------------7--7--7--7--7--|
G|---0--6b7b6--0-----------------|
D|-------------------------------|

Chorus (main riff x4)

The second part of the riff changes the fourth time around.

  Blinding light                         Kiss of fire
d|------------------------------------|------------------------------|
A|------------------------------------|------------------------------|
F|------------------------------------|------------------8-8-8-8-8-8-|
C|------------------------------------|------------------8-8-8-8-8-8-|
G|2-----------------2-----------------|2-----------------6-6-6-6-6-6-|
D|0--0--0--6h8p6p5--0--0--0--6h8p6p5--|0--0--0--6h8p6p5--------------|

  From the depths
d|------------------------------------|
A|------------------------------------|
F|------------------------------------|
C|------------------------------------|
G|2-----------------2-----------------|
D|0--0--0--6h8p6p5--0--0--0--6h8p6p5--|

                     Arise                      
d|----------------------------|
A|----------------------------|
F|----------------------------|
C|------------------5---------|
G|2-----------------3----6----|
D|0--0--0--6h8p6p5-------4----|


Outro (breakdown riff 2 x4)



Добавлено: 21.09.2015
Другие материалы по этой песне:

Страница создана 21.09.2015
http://primanota.ru/symphony-x/kiss-of-fire-chords.htm
Привет, Гость.
Предлагаем пройти революционный курс по гитаре.
Подарок от PrimaNota.Ru, забирай!