PrimaNota.ru - самый крупный в мире бесплатный архив песенных текстов, аккордов, табулатур и нот


Suzanne Vega - My Name Is Luka - таба, видео

Регистрация Запомнить меня
Войти через:  Facebook Google Twitter Vk Yandex Mail.ru

Suzanne Vega - My Name Is Luka - таба, видео

Печатать
Просмотров: 558
I'm Fernando Carretero(spanish)i hope you enjoy this song.
My name is Luka - Suzanne Vega

Intro

e|---|---|---|---|
B|---|---|---|---|
G|-1-|-8-|-6-|-8-|
D|-2-|-9-|-7-|-9-|
A|-2-|-9-|-7-|-9-|
E|---|-7-|-5-|-7-|

Verse

   My name is luca      I live on the 2nd floor     
e|-----------------|---|-----------------------|---|
B|-----------------|---|-----------------------|---|
G|--------1--------|-8-|------------6----------|-8-|
D|--------2--------|-9-|------------7----------|-9-|
A|--------2--------|-9-|------------7----------|-9-|
E|-----------------|-7-|------------5----------|-7-|

  I live upstairs from you     Yes I think you've seen me before 
e|------------------------|---|---------------------------------|---|
B|------------------------|---|---------------------------------|---|
G|------------1-----------|-8-|-----------------6---------------|-8-|
D|------------2-----------|-9-|-----------------7---------------|-9-|
A|------------2-----------|-9-|-----------------7---------------|-9-|
E|------------------------|-7-|-----------------5---------------|-7-|

Chorus

  If you hear something late at night      Some kind of ...
e|-----------------------------------|---|-----------------|---|
B|-------------------5---------------|---|--------5--------|---|
G|-------------------6---------------|-6-|--------6--------|-8-|
D|-------------------6---------------|-6-|--------6--------|-9-|
A|-------------------4---------------|-7-|--------4--------|-9-|
E|xxxxxxxxxxxxxxxxxxxxxxxxxxxxxxxxxxx|-5-|xxxxxxxxxxxxxxxxx|-7-|


  Just don't ask me what it was
e|-----------------|-----------|  
B|-----------------|-----------|
G|--------6--------|-----8-----|    x3
D|--------7--------|-----9-----|
A|--------7--------|-----9-----|
E|--------5--------|-----7-----|
Добавлено: 19.08.2013
Другие материалы по этой песне:
  • Аккорды и текст

Страница создана 19.08.2013
http://primanota.ru/suzanne-vega/my-name-is-luka-chords.htm
Привет, Гость.
Предлагаем пройти революционный курс по гитаре.
Подарок от PrimaNota.Ru, забирай!