PrimaNota.ru - самый крупный в мире бесплатный архив песенных текстов, аккордов, табулатур и нот


Surrenderdorothy - Theoceanhasneverbeensocold - таба, видео

Регистрация Запомнить меня
Войти через:  Facebook Google Twitter Vk Yandex Mail.ru

Surrenderdorothy - Theoceanhasneverbeensocold - таба, видео

Печатать
Просмотров: 140
-------------------------------------------------------------------------------
                             Theoceanhasneverbeensocold - Surrenderdorothy 
-------------------------------------------------------------------------------


e|---------------------------------------|
B|--4/3----------------------------------|
G|------3/5-----------5-----------3------|
D|-----------------5-----5-----3-----3---|
A|--------------3-----------1------------|
E|---------------------------------------|

e|---------------------------------------|
B|--4/3----------------------------------|
G|------3/5/7\5-------5-----------3------|
D|-----------------5-----5-----3-----3---|
A|--------------3-----------1------------|
E|---------------------------------------|

e|---------------------------------------|
B|--4/3----------------------------------|
G|------3-------------5-----------3------|
D|--------3br------5-----5-----3-----3---|
A|--------------3-----------1------------|
E|---------------------------------------|

************************************

| /   slide up
| \   slide down
| h   hammer-on
| p   pull-off
| ~   vibrato
| +   harmonic
| x   Mute note
| b   Bend
| pb  Pre-bend
| br  Bend release
| pbr Pre-bend release
| brb Bend release bend

************************************
Добавлено: 11.09.2015
Другие материалы по этой песне:
  • Аккорды и текст

Страница создана 11.09.2015
http://primanota.ru/surrenderdorothy/theoceanhasneverbeensocold-chords.htm
Привет, Гость.
Предлагаем пройти революционный курс по гитаре.
Подарок от PrimaNota.Ru, забирай!