PrimaNota.ru - самый крупный в мире бесплатный архив песенных текстов, аккордов, табулатур и нот


Sunrise Avenue - Unholy Ground - таба, видео

Регистрация Запомнить меня
Войти через:  Facebook Google Twitter Vk Yandex Mail.ru

Sunrise Avenue - Unholy Ground - таба, видео

Печатать
Просмотров: 141
Уроки эстрадного вокала в Санкт-Петербурге
Title:  UNHOLY GROUND
Album:  UNHOLY GROUND
Artist: SUNRISE AVENUE
Tempo:  120 bpm

                                                                                                
E|------------------|------------------|------------------|------------------|------------------|
B|------------------|------------------|------------------|------------------|------------------|
G|-6-6-----6-6------|-6-6-----4---3----|-6-6-----6-6------|-6-6-----4---3----|-6-6-----6-6------|
D|-6-6-----6-6------|-6-6-----4---3----|-6-6-----6-6------|-6-6-----4---3----|-6-6-----6-6------|
A|-4-4-----4-4------|-4-4-----2---1----|-4-4-----4-4------|-4-4-----2---1----|-4-4-----4-4------|
E|------------------|------------------|------------------|------------------|------------------|


                                                                                                
E|------------------|------------------|------------------|------------------|------------------|
B|------------------|------------------|------------------|------------------|------------------|
G|-6-6-----4---3----|-6-6-----6-6------|-6-6-----4---3----|-6-6-----6-6------|-9-9-----7-7------|
D|-6-6-----4---3----|-6-6-----6-6------|-6-6-----4---3----|-6-6-----6-6------|-9-9-----7-7------|
A|-4-4-----2---1----|-4-4-----4-4------|-4-4-----2---1----|-4-4-----4-4------|-7-7-----5-5------|
E|------------------|------------------|------------------|------------------|------------------|


                                                                                                
E|------------------|------------------|------------------|------------------|------------------|
B|------------------|------------------|------------------|------------------|------------------|
G|-6-6-----6-6------|-6-6-----4---3----|-6-6-----6-6------|-6-6-----4---3----|-6-6-----6-6------|
D|-6-6-----6-6------|-6-6-----4---3----|-6-6-----6-6------|-6-6-----4---3----|-6-6-----6-6------|
A|-4-4-----4-4------|-4-4-----2---1----|-4-4-----4-4------|-4-4-----2---1----|-4-4-----4-4------|
E|------------------|------------------|------------------|------------------|------------------|


                                                                                                
E|------------------|------------------|------------------|------------------|------------------|
B|------------------|------------------|------------------|------------------|------------------|
G|-6-6-----4---3----|-6-6-----6-6------|-9-9-----7-7------|-6-6-----6-6------|-4---3---4-----6--|
D|-6-6-----4---3----|-6-6-----6-6------|-9-9-----7-7------|-6-6-----6-6------|-4---3---4-----6--|
A|-4-4-----2---1----|-4-4-----4-4------|-7-7-----5-5------|-4-4-----4-4------|-2---1---2-----4--|
E|------------------|------------------|------------------|------------------|------------------|


                                                                                                
E|------------------|------------------|------------------|------------------|------------------|
B|------------------|------------------|------------------|------------------|------------------|
G|---6-6-6-6-6-6----|-4---3---4---6-6--|------------------|-4---3---4-----6--|---6-6-6-6-6-6----|
D|---6-6-6-6-6-6----|-4---3---4---6-6--|------------------|-4---3---4-----6--|---6-6-6-6-6-6----|
A|---4-4-4-4-4-4----|-2---1---2---4-4--|------------------|-2---1---2-----4--|---4-4-4-4-4-4----|
E|------------------|------------------|------------------|------------------|------------------|


                                                                                                
E|------------------|------------------|------------------|------------------|------------------|
B|------------------|------------------|------------------|------------------|------------------|
G|-4---3---4---6-6--|------------------|-9---9---7---7----|-6-6-----6-6------|-6-6-----4---3----|
D|-4---3---4---6-6--|------------------|-9---9---7---7----|-6-6-----6-6------|-6-6-----4---3----|
A|-2---1---2---4-4--|------------------|-7---7---5---5----|-4-4-----4-4------|-4-4-----2---1----|
E|------------------|------------------|------------------|------------------|------------------|


                                                                                                
E|------------------|------------------|------------------|------------------|------------------|
B|------------------|------------------|------------------|------------------|------------------|
G|-6-6-----6-6------|-6-6-----4---3----|-6-6-----6-6------|-6-6-----4---3----|-6-6-----6-6------|
D|-6-6-----6-6------|-6-6-----4---3----|-6-6-----6-6------|-6-6-----4---3----|-6-6-----6-6------|
A|-4-4-----4-4------|-4-4-----2---1----|-4-4-----4-4------|-4-4-----2---1----|-4-4-----4-4------|
E|------------------|------------------|------------------|------------------|------------------|


                                                                                                
E|------------------|------------------|------------------|------------------|------------------|
B|------------------|------------------|------------------|------------------|------------------|
G|-6-6-----4---3----|-6-6-----6-6------|-9-9-----7-7------|-4---3---4-----6--|---6-6-6-6-6-6----|
D|-6-6-----4---3----|-6-6-----6-6------|-9-9-----7-7------|-4---3---4-----6--|---6-6-6-6-6-6----|
A|-4-4-----2---1----|-4-4-----4-4------|-7-7-----5-5------|-2---1---2-----4--|---4-4-4-4-4-4----|
E|------------------|------------------|------------------|------------------|------------------|


                                                                                                
E|------------------|------------------|------------------|------------------|------------------|
B|------------------|------------------|------------------|------------------|------------------|
G|-4---3---4---6-6--|------------------|-4---3---4-----6--|---6-6-6-6-6-6----|-4---3---4---6-6--|
D|-4---3---4---6-6--|------------------|-4---3---4-----6--|---6-6-6-6-6-6----|-4---3---4---6-6--|
A|-2---1---2---4-4--|------------------|-2---1---2-----4--|---4-4-4-4-4-4----|-2---1---2---4-4--|
E|------------------|------------------|------------------|------------------|------------------|


                                                                                                
E|------------------|------------------|------------------|------------------|------------------|
B|------------------|------------------|------------------|------------------|------------------|
G|------------------|-9---9---7---7----|-6----------------|------------------|-6-6-----6-6------|
D|------------------|-9---9---7---7----|-6----------------|------------------|-6-6-----6-6------|
A|------------------|-7---7---5---5----|-4----------------|------------------|-4-4-----4-4------|
E|------------------|------------------|------------------|------------------|------------------|


                                                                                                
E|------------------|------------------|------------------|------------------|------------------|
B|------------------|------------------|------------------|------------------|------------------|
G|-6-6-----4---3----|-6-6-----6-6------|-6-6-----4---3----|-6-6-----6-6------|-6-6-----4---3----|
D|-6-6-----4---3----|-6-6-----6-6------|-6-6-----4---3----|-6-6-----6-6------|-6-6-----4---3----|
A|-4-4-----2---1----|-4-4-----4-4------|-4-4-----2---1----|-4-4-----4-4------|-4-4-----2---1----|
E|------------------|------------------|------------------|------------------|------------------|


                                                                                                
E|------------------|------------------|------------------|------------------|------------------|
B|------------------|------------------|------------------|------------------|------------------|
G|-6-6-----6-6------|-6-6-----4---3----|-6----------------|------------------|-6-6-----6-6------|
D|-6-6-----6-6------|-6-6-----4---3----|-6----------------|------------------|-6-6-----6-6------|
A|-4-4-----4-4------|-4-4-----2---1----|-4----------------|------------------|-4-4-----4-4------|
E|------------------|------------------|------------------|------------------|------------------|


                                                                                                
E|------------------|------------------|------------------|------------------|------------------|
B|------------------|------------------|------------------|------------------|------------------|
G|-6-6-----4---3----|-6-6-----6-6------|-6-6-----4---3----|-4---3---4-----6--|---6-6-6-6-6-6----|
D|-6-6-----4---3----|-6-6-----6-6------|-6-6-----4---3----|-4---3---4-----6--|---6-6-6-6-6-6----|
A|-4-4-----2---1----|-4-4-----4-4------|-4-4-----2---1----|-2---1---2-----4--|---4-4-4-4-4-4----|
E|------------------|------------------|------------------|------------------|------------------|


                                                                                                
E|------------------|------------------|------------------|------------------|------------------|
B|------------------|------------------|------------------|------------------|------------------|
G|-4---3---4---6-6--|------------------|-4---3---4-----6--|---6-6-6-6-6-6----|-4---3---4---6-6--|
D|-4---3---4---6-6--|------------------|-4---3---4-----6--|---6-6-6-6-6-6----|-4---3---4---6-6--|
A|-2---1---2---4-4--|------------------|-2---1---2-----4--|---4-4-4-4-4-4----|-2---1---2---4-4--|
E|------------------|------------------|------------------|------------------|------------------|


                                                                                                
E|------------------|------------------|------------------|------------------|------------------|
B|------------------|------------------|------------------|------------------|------------------|
G|------------------|-4---3---4-----6--|---6-6-6-6-6-6----|-4---3---4---6-6--|------------------|
D|------------------|-4---3---4-----6--|---6-6-6-6-6-6----|-4---3---4---6-6--|------------------|
A|------------------|-2---1---2-----4--|---4-4-4-4-4-4----|-2---1---2---4-4--|------------------|
E|------------------|------------------|------------------|------------------|------------------|


                                                                                                
E|------------------|------------------|------------------|------------------|------------------|
B|------------------|------------------|------------------|------------------|------------------|
G|-4---3---4-----6--|---6-6-6-6-6-6----|-4---3---4---6-6--|------------------|-9---9---7---7----|
D|-4---3---4-----6--|---6-6-6-6-6-6----|-4---3---4---6-6--|------------------|-9---9---7---7----|
A|-2---1---2-----4--|---4-4-4-4-4-4----|-2---1---2---4-4--|------------------|-7---7---5---5----|
E|------------------|------------------|------------------|------------------|------------------|


                                                                                                
E|------------------|------------------|------------------|------------------|------------------|
B|------------------|------------------|------------------|------------------|------------------|
G|-6-6-----6-6------|-6-6-----4---3----|-6-6-----6-6------|-6-6-----4---3----|-6-6-----6-6------|
D|-6-6-----6-6------|-6-6-----4---3----|-6-6-----6-6------|-6-6-----4---3----|-6-6-----6-6------|
A|-4-4-----4-4------|-4-4-----2---1----|-4-4-----4-4------|-4-4-----2---1----|-4-4-----4-4------|
E|------------------|------------------|------------------|------------------|------------------|




x    = dead note
/    = slide up
\    = slide dn
h    = hammer on
p    = pull off
~    = vibrato
b    = bend
br   = bend and release
pb   = pre bend
pbr  = pre bend and release
Добавлено: 06.10.2013
Другие материалы по этой песне:

Страница создана 06.10.2013
http://primanota.ru/sunrise-avenue/unholy-ground-chords.htm
Привет, Гость.
Предлагаем пройти революционный курс по гитаре.
Подарок от PrimaNota.Ru, забирай!