PrimaNota.ru - самый крупный в мире бесплатный архив песенных текстов, аккордов, табулатур и нот


Sun Ra - Discipline 27-Ii - таба, видео

Регистрация Запомнить меня
Войти через:  Facebook Google Twitter Vk Yandex Mail.ru

Sun Ra - Discipline 27-Ii - таба, видео

Печатать
Просмотров: 72
-------------------------------------------------------------------------------
                             SONG NAME - Band Name
-------------------------------------------------------------------------------
Tabbed by: anonymous
E-mail: none

Tuning:Standard

Here's backing chords to Discipline 27-II. 

Very simple, not exact, just my interpretation.

e|------x---------|---x-----------x|
B|------8---------|---6-----------6|
G|------7---------|---5-----------5|
D|------7---------|---x-----------x|
A|---0--6---------|---4-----------4|
E|------x---------|---x-----------x|

e|-----------x----|---x------------|
B|-----------8----|---6------------|
G|-----------7----|---5------------|
D|-----------7(8)-|---x------------|
A|---0---6---x----|---4------------|
E|-----------x----|---x------------|

And here's the basic outline for trumpet lead.

e|---12-10---------10---------------10-8---------8-------------10-8--------8--------------------------------|
B|--------------------10---------10---------------8---------10--------------8-----------------11------------|
G|---------------------------------------------------------------------------------------10-8---------------|
D|----------------------------------------------------------------------------------------------------------|
A|----------------------------------------------------------------------------------------------------------|
E|----------------------------------------------------------------------------------------------------------|

Fairly simple song, most of it relies on improvisation over these basic outlines- the lead and the droning
D#M7(b5) and C#M7.



************************************

| /   slide up
| \   slide down
| h   hammer-on
| p   pull-off
| ~   vibrato
| +   harmonic
| x   Mute note
| b   Bend
| pb  Pre-bend
| br  Bend release
| pbr Pre-bend release
| brb Bend release bend

************************************
Добавлено: 16.05.2016
Другие материалы по этой песне:
  • Аккорды и текст

Страница создана 16.05.2016
http://primanota.ru/sun-ra/discipline-27-ii-chords.htm
Привет, Гость.
Предлагаем пройти революционный курс по гитаре.
Подарок от PrimaNota.Ru, забирай!