PrimaNota.ru - самый крупный в мире бесплатный архив песенных текстов, аккордов, табулатур и нот


Sully Erna - My Light - текст песни, таба, видео

Регистрация Запомнить меня
Войти через:  Facebook Google Twitter Vk Yandex Mail.ru

Sully Erna - My Light - текст песни, таба, видео

Печатать
Просмотров: 323
-------------------------------------------------------------------------------
                            My light - Sully Erna
-------------------------------------------------------------------------------
Tabbed by:Vovar

part 1
|-------01------3----------------01------3----------|\
|-----1---1--------------------1---1----------------||
|---2-------2-----2----------2-------2-----2--------||Repeate 16 times
|-0-----------3-----2------0-----------3-----2-2---0||
|---------------------0-3------------------------3--||
|---------------------------------------------------|/

Part 2
|---------------------------------------------------------------\
|-------1------------------------------1------------------------|
|-----2---2----------0-----0---------2---2----------0-----0-----|Repeat 16 
|---2-------2------0-----0---------2-------2------0-----0-------|times, then
|-0-----------0--3-----2-----3---0-----------0--3-----2-----2---|again part 1
|------------------------------3------------------------------3-/
Добавлено: 30.04.2012
Другие материалы по этой песне:

Страница создана 30.04.2012
http://primanota.ru/sully-erna/my-light-chords.htm
Привет, Гость.
Предлагаем пройти революционный курс по гитаре.
Подарок от PrimaNota.Ru, забирай!