PrimaNota.ru - самый крупный в мире бесплатный архив песенных текстов, аккордов, табулатур и нот


Suicidal Tendencies - We Are Family - таба, бас-таба, видео

Регистрация Запомнить меня
Войти через:  Facebook Google Twitter Vk Yandex Mail.ru

Suicidal Tendencies - We Are Family - таба, бас-таба, видео

Печатать
Просмотров: 119
Artist: Suicidal Tendencies
Piece: We Are Family
Instrument: Guitar

Intro/Verse:

|--------------------------------------------------------------|
|--------------------------------------------------------------|
|--------------------------------------------------------------|dist
|-2-2--2-2-2--2-2-2--2-2-2--2-2-2--2-2-2--2-2-2--2-2-2--2-2-2--|
|-2-2--2-2-2--2-2-2--2-2-2--2-2-2--2-2-2--2-2-2--2-2-2--2-2-2--|
|-0-0--0-0-0--0-0-0--0-0-0--0-0-0--0-0-0--0-0-0--0-0-0--0-0-0--|

Riff In Verse: play after he says "..we are a family..."
         w
|-------12--/------------|
|-------12--/------------|
|-11h12-12--/------------|w - wah
|------------------------|
|------------------------|
|------------------------|

Chorus: "..we don't judge you by your skin..."

|-----------------------------------------|
|-----------------------------------------|
|--------9-9--9-10-10--10-10-10--10-------|w/dist
|-5-5--5-9-9--9-10-10--10-10-10--10-------|
|-5-5--5-7-7--7--8--8---8--8--8---8-------|
|-3-3--3----------------------------------|
Добавлено: 11.11.2015
Другие материалы по этой песне:
  • Аккорды и текст

Страница создана 03.06.2012
http://primanota.ru/suicidal-tendencies/we-are-family-chords.htm
Привет, Гость.
Предлагаем пройти революционный курс по гитаре.
Подарок от PrimaNota.Ru, забирай!