PrimaNota.ru - самый крупный в мире бесплатный архив песенных текстов, аккордов, табулатур и нот


Stratovarius - Nightfall - текст песни, таба, видео

Регистрация Запомнить меня
Войти через:  Facebook Google Twitter Vk Yandex Mail.ru

Stratovarius - Nightfall - текст песни, таба, видео

Печатать
Просмотров: 146
Location: Season of Change - http://www.sci.fi/~jnevala/stratovarius/


STRATOVARIUS - NIGHTFALL (From 4th Dimension)
Music&Words By: Timo Tolkki/Tuomo Lassila

Transcribed By: Niclas Buss

Email:  nbjbuss@hotmail.com

Tune down 1/2 step!

 Sitar "Guitar"

E----------------------------------------------------------------------------------------------|
B---7---------7---------7---------7--------------7---------7---------7--------7--------------7-|
G*----9---------9---------9---------9--------------9---------9---------9--------9--------------|
D*------9---------9---------9---------9--------------9---------9---------9--------9------------|
A(Gtr.2)10-9------10-9------10-9------10-9-----------10-9------10-9------10-9-----10-9-----0---|
E--0---------------------------------------10--8---------------------------------------10------|
											     x2
E----------------------------------------------------------------------------------------------|
B----------7---------7---------7---------------7---------7---------7---------7-----------------|
G--9---------9---------9---------9---------------9---------9---------9---------9--------------*|
D----9---------9---------9---------9---------------9---------9---------9---------9------------*|
A----10-9------10-9------10-9------10-9------------10-9------10-9------10-9------10-9----------|
E---------------------------------------10--0-----------------------------------------10-------|

						        x2	 Verse
E---------------------------------------------------------------------------------8~-----------|
B----------------------------------------------------------|----6---5---6-------6----6---------|
G---9------9------9------9-------9------9------9------9----|*-----7---7---7---5--------7-----7-|
D-----9------9------9------9-------9------9------9------9--|*--7------------0------------------|
A-------10------9--------------------10------9-------------|-5-----------------------------5---|
E-0-------------------10-------0-------------------10------------------------------------------|

										   x2 
E-------------------8~---------------3~-----6-----0------------0------0-----0----------------3~|
B-6---5---6-------6----6------------------------6---6--------3---3------3------3-----|---------|
G---7---7---7---5--------7-------3------3-----7-------7----2-------2------2------2--*|-----3---|
D-------------0----------------3---3------3--------------0--------------------------*|---3-----|
A----------------------------1-------------------------------------------------------|-1-------|
E----------------------------------------------------------------------------------------------|

							 Chorus				    x4
E------6-----0------3)-------------------------------------------------------------------------|
B----------6---6----3(----------------------------------|--------------------------------------|
G-3------7-------7--5)----------------------------------|*------------------------------------*|
D---3---------------5(--------------------------5-5-5-5-|*-7---5----5----7----5---4--5---2--3-*|
A-------------------3)--3-3-3-3-3-3-3-3-3-3-3-3-3-3-3-3-|--5---3----3----5----3---2--3---0--1--|
E----------------------------------------------------------------------------------------------|
		       pm......................|			

  Guitar Solo
E----------------------------------------------------------------------------------------------|
B--13b(15)---r13---8b(10)--r8------------------------------------------------------------------|
G-----------------------------10-9~--------7~----9-10-7~----9-10-10b(12)~---r10-10-h12p10p9-h10|
D--------------------------------------10------------------------------------------------------|
A----------------------------------------------------------------------------------------------|
E----------------------------------------------------------------------------------------------|

E------------------------------------12-10-8----------------------------10h13p10h13-17-15------|
B----------------------------------8---------10--13b(15)~--13b(15)-r13--------------------15-13|
Gp9p7--5-7~-----------------7-9-10-------------------------------------------------------------|
D------------7---------5-7---------------------------------------------------------------------|
A--------------10p8p7--------------------------------------------------------------------------|
E----------------------------------------------------------------------------------------------|

E----------------------------------------------------------------------------------------------|
Bh17p13h17------------------------------------------11-13-11------------------11-13-11---------|
G----------15p13p15------------------------10-12-14----------14-10---10-12-14----------14b(15)-|
D-------------------17-15-14-15-14-12-12~------------------------------------------------------|
A----------------------------------------------------------------------------------------------|
E----------------------------------------------------------------------------------------------|

E----------------------------------------13b(15)~--r13-13-12-10--------------------------------|
B---------------------------------------------------------------13b(15)-13~--13b(15)r13--8b(10)|
G-r14-10~--9h10p9p7h9~--7--5b(7)-r5b(7)--------------------------------------------------------|
D----------------------------------------------------------------------------------------------|
A----------------------------------------------------------------------------------------------|
E----------------------------------------------------------------------------------------------|

E-----/20--18-17-13b(15)~--r13-12-12b(13)-r12-10-----10-12-12b(13)r12-12-10-10-8-8---/17-------|
Br8~---------------------------------------------13--------------------------------------13----|
G-------------------------------------------------------------------------------------------14-|
D----------------------------------------------------------------------------------------------|
A----------------------------------------------------------------------------------------------|
E----------------------------------------------------------------------------------------------|
					
					x8½*
E-/13---------------------------------------|
B-----10----/15------------------|----------|
G--------12-----14---------------|--Chorus--| end 
D------------------15-14-12~~----|----------| 
A--------------------------------|----------|
E-------------------------------------------|
 *=Fade out on the 7th time						

 Rhythm Guitar during guitar solo
E------------5-----------------------------5------------------------------5-------------------|
B--------------5-6-----5-----5---------------5-6------5-----5---------------5-6------5-----5--|
G----------7-------7-----7------7--------7-------7------7-----7---------7-------7------7-----7|
D--------7-----------7-----7------7----7-----------7------7-----7-----7-----------7------7----|
A------5-----------------------------5------------------------------5-------------------------|
E---------------------------------------------------------------------------------------------|

						   x2  
E----------5----------3-5\--------------------------3----------------5----------------3-------|
B------------5-6------------3--3--3--3---|------------3----------------5----------------3-----|
G--------7-------7-----------------------|--------3-----3----------5-----5----------3-----3---|
D-7----7-----------7---------------------|------5---------5------7---------7------5---------5-|
A----5-----------------------------------|----5----------------7----------------5-------------|
E-------------------------------------------3----------------5----------------3---------------|

E---------5----------------0----------------3----------------3--------------------------------|
B-----------5----------6-----6---6--------5---5----------------3-------Dist.on----------------|
G-------5-----5------7---7-----7--------5-------5----------3-----3----------------------------|
D-----7---------7--8------------------5-----------5------5---------5-------------------5-5-5-5|
A---7-------------------------------3------------------5---------------3-3-3-3-3-3-3-3-3-3-3-3|
E-5--------------------------------------------------3----------------------------------------|
								      pm..............|
E-----------------|
B-----------------|
G-----------------|
D-5-5--5--5-------|
A-3-3--3--3-------|
E-----------------|
 
TABLAURE EXPLANATION
======================

pm..| = Palm mute

p = Pull off

h = Hammer on

b() = bend

/ = Slide up

\ = Slide down

~~~~ = vibrato

|     |
|     |
|*   *| = repeat from * to *
|*   *| 
|     |
Добавлено: 25.02.2012
Другие материалы по этой песне:
  • Аккорды и текст

Страница создана 25.02.2012
http://primanota.ru/stratovarius/nightfall-chords.htm
Привет, Гость.
Предлагаем пройти революционный курс по гитаре.
Подарок от PrimaNota.Ru, забирай!