PrimaNota.ru - самый крупный в мире бесплатный архив песенных текстов, аккордов, табулатур и нот


Stratovarius - Stratophere - таба, бас-таба, видео

Регистрация Запомнить меня
Войти через:  Facebook Google Twitter Vk Yandex Mail.ru

Stratovarius - Stratophere - таба, бас-таба, видео

Печатать
Просмотров: 97
Уроки эстрадного вокала в Санкт-Петербурге
Tune Ѕ down
2x
|---12-0-0-0-8-0-0-0-7-0-0-0-5-0-0-0-12-0-0-0-8-0-0-0-7-0-0-0-5-0-0-0-------------|
|---------------------------------------------------------------------------------|
|---------------------------------------------------------------------------------|
|---------------------------------------------------------------------------------|
|---------------------------------------------------------------------------------|
|---------------------------------------------------------------------------------|


4X
|---12-0-0-0-8-0-0-0-7-0-0-0-5-0-0-0-12-13-12-10-------------------10-12-13-12-10-|
|------------------------------------------------13-12-10--10-12-13---------------|
|--------------------------------------------------------13-----------------------|
|---------------------------------------------------------------------------------|
|---------------------------------------------------------------------------------|
|---------------------------------------------------------------------------------|


|---12-0-0-0-10-0-0-0-7-0-0-0-4-0-0-0-12-13-12-10------------------10-12-13-12-10-|
|------------------------------------------------13-12-10--10-12-13---------------|
|--------------------------------------------------------13-----------------------|
|---------------------------------------------------------------------------------|
|---------------------------------------------------------------------------------|
|---------------------------------------------------------------------------------|


2x
|---12^9----9-12^9-13^9-12^9----9-12^9-12^9--17^13----13-17^13-18^13-17^13---13-17^|
|--------10------------------10--------------------15----------------------15------|
|----------------------------------------------------------------------------------|
|----------------------------------------------------------------------------------|
|----------------------------------------------------------------------------------|
|----------------------------------------------------------------------------------|


|^13-17^13--10^7----7-10^7-12^7-10^7---7-10^7-10^7--15^12---12-15^12-17^12-15^12---|
|-----------------8------------------8--------------------13--------------------13-|
|----------------------------------------------------------------------------------|
|----------------------------------------------------------------------------------|
|----------------------------------------------------------------------------------|
|----------------------------------------------------------------------------------|


|-12-15^12-15^12--8^5---5-8^5-10^5-8^5---5-8^5-8^5--14^11---11-14^11-15^11-14^11---|
|---------------------6----------------6------------------12--------------------12-|
|----------------------------------------------------------------------------------|
|----------------------------------------------------------------------------------|
|----------------------------------------------------------------------------------|
|----------------------------------------------------------------------------------|


|-11-14^11-14^11--19^16----16-19^16-20^16-19^16----16-19^16-19^16-19^16----16-19^16|
|-----------------------17-----------------------17----------------------17--------|
|----------------------------------------------------------------------------------|
|----------------------------------------------------------------------------------|
|----------------------------------------------------------------------------------|
|----------------------------------------------------------------------------------|


|-20^16-19^16---16-19^16-19\--|
|-------------17--------------|
|-----------------------------|
|-----------------------------|
|-----------------------------|
|-----------------------------|


  4x
|----------------------------------------------------------------------------------|
|-10-13-12-10-9-12-10-9-10-13-12-10-9-12-10-9-10-13-12-10-12-15-13-12-13-17-15-13--|
|----------------------------------------------------------------------------------|
|----------------------------------------------------------------------------------|
|----------------------------------------------------------------------------------|
|----------------------------------------------------------------------------------|

|----------------------------------------------------------------------------------|
|-14-17-15-14-15-18-17-15-14-17-15-14-15-18-17-15-14-17-15-14-15-18-17-15-17-20-18-|
|----------------------------------------------------------------------------------|
|----------------------------------------------------------------------------------|
|----------------------------------------------------------------------------------|
|----------------------------------------------------------------------------------|


|-------------------------------------------------------------------------------|
|-17-17^18^17^15-------------------------------------------------------------------|
|----------------17-16-14-13-------------------------------------------------------|
|----------------------------------------------------------------------------------|
|----------------------------------------------------------------------------------|
|----------------------------------------------------------------------------------|



*="Tremolo picking"
   *   *
|-19--16---*-----------------------------------------------------------------------|
|---------17--*---*---*------------------------------------------------------------|
|------------16--14--13---*--*-----------------------------------------------------|
|------------------------14--9--*---*----------------------------------------------|
|------------------------------12--11----*---*-------------------------------------|
|---------------------------------------13--10-------------------------------------|



|----------------------------------------------------------------------------------|
|----------------------------------------------------------------------------------|
|-9----10----7---9----5----7---4---5-----------------------------------------------|
|----------------------------------------------------------------------------------|
|--------------------------------------7~\(bar)------------------------------------|
|-12---13---10---12---8---10---7---8---5~\-----------------------------------------|


2x
|----------------------------------------------------------------------------------|
|----------------------------------------------------------------------------------|
|-5~----/9----7~---4----------------------------------5~----/9----7~----/12---9~---|
|---------------------5-----------7--7~--------------------------------------------|
|-----------------------5---5/7-------------------/7-------------------------------|
|----------------------------------------------------------------------------------|


                                     b                             1st time
|------------------------------------Ѕ---------------------------|--b--------------|
|------------------10~----12--13----12~----12----10~----13---12~-|--Ѕ--------------|
|-9----10~----12-------------------------------------------------|--9--9--7--10--9~|
|----------------------------------------------------------------|-----------------|
|----------------------------------------------------------------|-----------------|
|----------------------------------------------------------------|-----------------|


2nd time
    b                       t= tapping
|---Ѕ-------------------------t-------------|
|--17--17--15---18---17~-----24-------------|
|-------------------------------------------|
|-------------------------------------------|
|-------------------------------------------|
|-------------------------------------------|


2x
|--12---9-----------------------10---7----------------------8---5------------------|
|------------10----------------------------8--------------------------6---5--------|
|------------------12---10~---------------------10---9~------------------------7~--|
|----------------------------------------------------------------------------------|
|----------------------------------------------------------------------------------|
|----------------------------------------------------------------------------------|


|--------------------------------|
|--4~---7---4~-------------------|
|-------------- 4~----/9~--------|
|--------------------------------|
|--------------------------------|
|--------------------------------|


6x
|---12-0-0-0-8-0-0-0-7-0-0-0-5-0-0-0-12-13-12-10--------------------10-12-13-12-10-|
|------------------------------------------------13-12-10---10-12-13---------------|
|---------------------------------------------------------13-----------------------|
|----------------------------------------------------------------------------------|
|----------------------------------------------------------------------------------|
|----------------------------------------------------------------------------------|



|---12-0-0-0-10-0-0-0-7-0-0-0-4-0-0-0-12-13-12-10--------------------10-12-13-12-10|
|-------------------------------------------------13-12-10---10-12-13--------------|
|----------------------------------------------------------13----------------------|
|----------------------------------------------------------------------------------|
|----------------------------------------------------------------------------------|
|----------------------------------------------------------------------------------|

3x
|-12-13-12-10--------------------10-12-13-12-10-----|
|-------------13-12-10---10-12-13-------------------|
|----------------------13---------------------------|
|---------------------------------------------------|
|---------------------------------------------------|
|---------------------------------------------------|


|----12---13---10---12---8---10----7---8--------7----------------------------------|
|------------------------------------------10--------9---10------------------------|
|--------------------------------------------------------------9---10---7---9---5--|
|----------------------------------------------------------------------------------|
|----------------------------------------------------------------------------------|
|----------------------------------------------------------------------------------|


|----------------------------------------------------------------------------------|
|----------------------------------------------------------------------------------|
|-7---4---5-------4----------------------------------------------------------------|
|-------------7-------6---7---2---3------2-----------------------------------------|
|-------------------------------------5-----3---5----2---3----3--------------------|
|-------------------------------------------------------------1--------------------|


Loppu                Tдstд en ole ihan varma
  pm-...................................................|
|---------------------------------------------------------------------------------^|
|--------------------------------------------------------------------------15-17-18|
|--------------------------------------------------------14-16-17-14-16-17---------|
|--------------------------------------13-14-16-13-14-16---------------------------|
|--------------------12-14-15-12-14-15---------------------------------------------|
|--11-12-14-11-12-14---------------------------------------------------------------|


|-------------------------------|
|-17^15-17^15-17-/22------------|
|-------------------------------|
|-------------------------------|
|-------------------------------|
|-------------------------------|


                ~ = vibrato
                ^ = pull off
                /=  slide
Добавлено: 11.10.2013
Другие материалы по этой песне:
  • Аккорды и текст

Страница создана 02.06.2012
http://primanota.ru/stratovarius/stratophere-chords.htm
Привет, Гость.
Предлагаем пройти революционный курс по гитаре.
Подарок от PrimaNota.Ru, забирай!