PrimaNota.ru - самый крупный в мире бесплатный архив песенных текстов, аккордов, табулатур и нот


Stratovarius - Forever Free - аккорды и текст, таба, бас-таба, видео

Регистрация Запомнить меня
Войти через:  Facebook Google Twitter Vk Yandex Mail.ru

Stratovarius - Forever Free - аккорды и текст, таба, бас-таба, видео

Печатать
Просмотров: 283
Уроки эстрадного вокала в Санкт-Петербурге
Авторы: Timo Tolkki, Timo Kotipelto

Forever Free
Stratovarius
intro            
|------------------------------------------------------------------------------------------|
|----2-----2-4----4-5-----5-7-----10-9----2-4----4-5-5-4-5-2-----2-4-----4-5-5-7-5-4-5-2---|
|------------------------------------------------------------------------------------------|
|------------------------------------------------------------------------------------------|
        final del intro
|----------------------||
|----2-4----4-5-5-4-5-||
|---------------------||
|----------------------||
 

verso
|-----------------------------------------------------------------------------~-------------|
|------------------------------------------------------------------------------------------|
|----------5----------------2--------------5-----------------------------------------------|
|--2--------------2----------------2---------------2----------------------------------------|


|------------------------------------|-------------------------------------------|----------|
|------------------------------------|-------------------------------------------|----------|
|-7-7-7-7-7-7-7-7-7-3-3-3-3-3-3-3-3-3|-4-4-4-4-4-4-4-4-4-5-5-5-5-5-5-6-6-6-6-6-6-|--5-------|
|------------------------------------|-------------------------------------------|----------|

                                       
|-------------------------------------------------------------------------------------------|
|-------------------------------------------------------------------------------------------|
|---------5---------------2----------------5------------------------------------------------|
|-2--------------2----------------2---------------2-----------------------------------------|

coro
|-------------------------------------------------------------------------------------------|
|-------------------------------------------------------------------------------------------|
|---------3------5----------------3------5-------------3------5------6-----3-----5-|
|-3------------------------3----------------------0--------------------------------------|

intro
|-------------------------------------------------------------------------------------------|
|----2-----2-4-----4-5-----5-7-----10-9-----2-4-----4-5-5-4-5-2-----2-4-5-5-7-5-4-5-2-------|
|-------------------------------------------------------------------------------------------|
|-------------------------------------------------------------------------------------------|

|-------------------------------||
|----2-----2-4-----4-5-5-4-5---||
|------------------------------||
|-------------------------------||
se repite desde el verso


la parte de la guitarra 
|-------------------------------------------------------------------------------------------|
|------------------------------------------------------------------------------------------|
|----------5-----------------2------------------5---------------------------------------|
|--2---------------2------------------2-----------------2-------------------------------|


     
teclado solo 4 vecese
|-------------------------------------------------------------------------------------------|
|-------------------------------------------------------------------------------------------|
|-------------------------------------------------------------------------------------------|
|---2--2-2-2-2-2-2-2--2-2-2-2-2-2-2--2-2-2-2-2-2-2--0--0------------------------------------|

   
 solo guitarra2
|-------------------------------------------------------------------------------------------|
|------------------------------------------------------------------------------------------|
|-----------5------------------2------------------5-------------------------------------|
|-2-----------------2-------------------2----------------2------------------------------|
se repite todas la veces necesarias
		

|-------------------------------------------------------------------------------------------|
|-------------------------------------------------------------------------------------------|
|---------3-----5---------------3------5--------------3-----5----6----3-----5------|
|-3----------------------3----------------------0----------------------------------------|


chorus #2
|-------------------------------------------------------------------------------------------|
|-------------------------------------------------------------------------------------------|
|------------5-----7-------------5-------7-------------5-----7-----8-----5------7--|
|----5---------------------5---------------------2---------------------------------------|

   
intro
|-------------------------------------------------------------------------------------------|
|--2-----2-4-----4-5-----5-7-----10-9-----2-4-----4-5-5-4-5-2------2-4------4-5-5-7-5-4-5-2-|
|-------------------------------------------------------------------------------------------|
|-------------------------------------------------------------------------------------------|


|------------------------||
|-----------------------||
|----2-4-----4-5-5-4-5--||
|------------------------||

aki esta la tab de forever free ke les prometi asike sakenla bn no ma po
markolix si se kieren contactar con migo 
marcovalenzuela14@hotmail.com
viva chile mierda!!!!!!!!!!!!!!!
Добавлено: 29.12.2013
Другие материалы по этой песне:

Страница создана 15.03.2012
http://primanota.ru/stratovarius/forever-free-chords.htm
Привет, Гость.
Предлагаем пройти революционный курс по гитаре.
Подарок от PrimaNota.Ru, забирай!