PrimaNota.ru - самый крупный в мире бесплатный архив песенных текстов, аккордов, табулатур и нот


Stratovarius - Future Shock - аккорды и текст, таба, видео

Регистрация Запомнить меня
Войти через:  Facebook Google Twitter Vk Yandex Mail.ru

Stratovarius - Future Shock - аккорды и текст, таба, видео

Печатать
Просмотров: 140
Future Shock
Stratovarius
Location: Season of Change - 

STRATOVARIUS - FUTURE SHOCK (From Fright Night)
Music&Words By: Timo Tolkki/Tuomo Lassila

Transcribed By: Niclas Buss

Email:  nbjbuss@hotmail.com

Tune down 1/2 step!

E----------------------------------0-----------------------------------------------------------|
B----------------------------1-0-4---1-0---1-0-----0-------------------------------------------|
G----------------------0-4-2-------------2-----2-0---2-0---2-0---------------------------------|
D----------------1-2-4-----------------------------------4-----4-2-1-2~--@--/9-----------------|
A--------2-0-3-2---------------------------------------------------------2--/7-----2~---------|
E--0-2-3-----------------------------------------------------------------0---/------0~---------|
 =Trempick

  Riff 1				         x8  Fill 1
E----------------------------------------------------------------------------------------------|
B--------------------------------------------------|----------------Gtr.2-12--13-12-10--8-10---|
G--------------------------------------------------|-------------------------------------------|
D--------------------------------------------------|-------------------------------------------|
A-------------2-3-0-0-2--------------2-3-2---------|--9--10--9--7--5--7----9--10--9--7--5--7---|
E-0--0-0--0-0------------0--0-0--0-0-------5-3-2------7---8--7--5--3--5----7---8--7--5--3--5---|
 pm..........|   pm..|  pm..........|                

			     Verse 1
E----------------------------------------------------------------------------------------------|
B-12--13-12-10--8--7--5~----|------------------------------------------------------------------|
G---------------------------|-9--------------------------9--------------------------9----------|
D---------------------------|-9--------------------------9--------------------------9----------|
A--9--10--9--7--5--4--2~----|-7----12-10-9-7--10-9-7-6~--7----12-10-9-7--10-9-7-6~--7----12-10-|
E--7---8--7--5--3--2--0~-----------------------------------------------------------------------|

E----------------------------------------------------------------------------------------------|
B----------------------------------------------------------------------------------------------|
G-----------------9----------------------------------------------------------------------------|
D-----------------9----------------------------------------------------------------------------|
A-9-7--10-9-7-6~--7----12-10-9-7--10-9-7-6~--------------------------------0-2-0-----2--------|
E---------------------------------------------0--0-0-0-0--0--0-0-0-0-0-2-3-------3-2-0--------|
					       pm.....................|

  Chorus (Two Guitars)							  x4
E----------------------------------------------------------------------------------------------|
B--------7-------7--8-7-5-4-5~---------7--------7--8-8-10-8--7~-----|--------|--------|--------|
G------8-------8---------------------8--------8---------------------|-Riff-1-|-Fill-1-|-Verse-2|
D--9-9-----9-9-------------------9-9------9-9------5---------7------|--------|--------|--------|
A--9---------7-5-4--2------------9----------7-5-4--3---------5------|--------|--------|--------|
E--7---------5-3-2--0------------7----------5-3-2----------------------------------------------|

				  Guitar Solo
			 	      T	       T        T        T	  T        T        T  	
E------------------------------------12p8p5p0-17p8p5p0-20p8p5p0-17p8p5p0-12p8p5p0-17p8p5p0-20p8|
B----------|----------|----------|-------------------------------------------------------------|
G--Chorus--|--Riff-1--|--Fill-1--|-------------------------------------------------------------|
D----------|----------|----------|-------------------------------------------------------------|
A----------|----------|----------|-------------------------------------------------------------|
E----------------------------------------------------------------------------------------------|

       T         T        T        T        T        T        T        T        T         T

Ep5p0-17p8p5p0--16p7p4p0-19p7p4p0-22p7p4p0-19p7p4p0-16p7p4p0-19p7p4p0-22p7p4p0-19p7p4p0--12p8p5|
B----------------------------------------------------------------------------------------------|
G----------------------------------------------------------------------------------------------|
D----------------------------------------------------------------------------------------------|
A----------------------------------------------------------------------------------------------|
E----------------------------------------------------------------------------------------------|

     T        T        T        T        T        T        T         T        T        T
Ep0-17p8p5p0-20p8p5p0-17p8p5p0-12p8p5p0-17p8p5p0-20p8p5p0-17p8p5p0--16p7p4p0-19p7p4p0-22p7p4p0-|
B----------------------------------------------------------------------------------------------|
G----------------------------------------------------------------------------------------------|
D----------------------------------------------------------------------------------------------|
A----------------------------------------------------------------------------------------------|
E----------------------------------------------------------------------------------------------|

   T        T        T           
E-19p7p4p0-16p7p4p0-19p7p4p0-22~-----/17--15-13-12--12h13-10h12--------------------------------|
B---------------------------------------------------------------13h15-12h13-10h12-9-10-12-13-12|
G----------------------------------------------------------------------------------------------|
D----------------------------------------------------------------------------------------------|
A----------------------------------------------------------------------------------------------|
E----------------------------------------------------------------------------------------------|

											     T
E--12-10-8----------------12-10-8-----------------------------------------0h5p0h5p0h5p0h5p0h17p|
B----------12-10-9~---------------12-10-9-10-9-------------------------------------------------|
G-------------------9-7-9----------------------10-9-7-----7-9-7--------------------------------|
D-----------------------------------------------------10--------10-9-7-6-----------------------|
A----------------------------------------------------------------------------------------------|
E----------------------------------------------------------------------------------------------|

       T      T      T      T					  T                 T	    
E-5p0h19p5p0h20p5p0h19p5p0h17p5p0h5------------------------10h13-16p13p10----10h16-19p16p10----|
B-----------------------------------10-8----------------12----------------12----------------12-|
G----------------------------------------10-9-7------------------------------------------------|
D-----------------------------------------------10-9-7-----------------------------------------|
A----------------------------------------------------------------------------------------------|
E----------------------------------------------------------------------------------------------|

             T
E-10h13p10--16---19--/22b(24)~~----------------15-17-15----------------15-17-15---------/17-14-|
B-------------------------------------18-17-18----------18-17-18-17-18----------18-17----------|
G----------------------------------------------------------------------------------------------|
D----------------------------------------------------------------------------------------------|
A----------------------------------------------------------------------------------------------|
E----------------------------------------------------------------------------------------------|

E-----------------17-19-17----------------17-19-17---------/19-16---------19-16-------19--16---|
B-15-----20-19-20----------20-19-20-19-20----------20-19----------17------------17-----------17|
G----14--------------------------------------------------------------16------------16----------|
D----------------------------------------------------------------------------------------------|
A----------------------------------------------------------------------------------------------|
E----------------------------------------------------------------------------------------------|
			        x8			
E----------------------------------------------------------------------------------------|
B------------|----------|----------|----------|------------------------------------------|
G--16~-------|--Chorus--|--Riff-1--|--Fill-1--|------------------------------------------| end
D------------|----------|----------|----------|------------------------------------------|
A------------|----------|----------|----------|----------------------------------2--2---|
E------------------------------------------------0-0-0-0-0-0-0-0-0-0-0-0-3-3-3-5----0---|
						pm..........................|

  Rhythm  Guitar During Guitar Solo
E----------------------------------------------------------------------------------------------|
B----------------------------------------------------------------------------------------------|
G----------------------------------------------------------------------------------------------|
D----------------------------------------------------------------------------------------------|
A----------------------------------------------------5-7-5-------------------------------------|
E--5-5-5-5-5-5-5-5-5-5-5-5-5-5-5-5-5-5-5-5-5-5-5-7-8-------7-8-0-0-0-0-0-0-0-0-0-0-0-0-0-0-0-0-|
  pm............................................|             pm...............................

E----------------------------------------------------------------------------------------------|
B----------------------------------------------------------------------------------------------|
G----------------------------------------------------------------------------------------------|
D----------------------------------------------------------------------------------------------|
A---------------5-7-5------------------------------------------------------5-7-5---------------|
E-0-0-0-0-0-7-8-------7-5-5-5-5-5-5-5-5-5-5-5-5-5-5-5-5-5-5-5-5-5-5-5-7-8--------7-8-0-0-0-0-0-|
 ..........|           pm............................................|             pm..........

E----------------------------------------------------------------------------------------------|
B-------------------------|--------------------------------------------------------------------|
G-------------------------|--------------------------------------------------------------------|
D-------------------------|---2---------0-2-0-----------------0-2-0--------2---------0-2-0-----|
A-------------------------|---0---0-2-3-------3-2-2~----0-2-3-------3-2----0---0-2-3-------3-2-|
E-0-0-0-0-0-0-0-0-0-0~----------------------------0~-------------------------------------------|
 ..................|		

E-----------------------------------------------------------------------------|
B-----------------------------------------------------------------------------|
G-----------------------------------------------------------------------------|
D-------------------------------4-----------------------6----------------9---|
A-2~----------------------------4-----------------------6----------------7---|
E-0~-------1-1-1-1-1-1-1-1-1-1--2--3-3-3-3-3-3-3-3-3-3--4---------------------|
	    pm..................|   pm..................|

TABLAURE EXPLANATION
======================

pm..| = Palm mute

p = Pull off

h = Hammer on

b() = bend

/ = Slide up

 = Slide down

~~~~ = vibrato

|     |
|     |
|   | = repeat from  to 
|   | 
|     |
Добавлено: 14.11.2013
Другие материалы по этой песне:

Страница создана 08.03.2012
http://primanota.ru/stratovarius/future-shock-chords.htm
Привет, Гость.
Предлагаем пройти революционный курс по гитаре.
Подарок от PrimaNota.Ru, забирай!