PrimaNota.ru - самый крупный в мире бесплатный архив песенных текстов, аккордов, табулатур и нот


Stranglers - Outside Tokyo - текст песни, бас-таба, видео

Регистрация Запомнить меня
Войти через:  Facebook Google Twitter Vk Yandex Mail.ru

Stranglers - Outside Tokyo - текст песни, бас-таба, видео

Печатать
Просмотров: 103
SONG NAME: OUTSIDE TOKYO - Band Name: The Stranglers
-----------------------------------------------------------------

Tabbed By : Tominblack
e-mail:tominblack@orange.fr

Tuning: Standard.

G|---------------------------------|---------------------------------|
D|-----------------0-1-2-1---------|-----------------0-1-2-1---------|
A|-----------0-2-4---------4-1-----|-----------0-2-4---------4-1-----|
E|---0-2-3-4-------------------4-2R|---0-2-3-4-------------------4-2R|

G|---------------------------------|---------------------------------|
D|-----------------0-1-2-1---------|-----------------0-1-2-1---------|
A|-----------0-2-4---------4-1-----|-----------0-2-4---------4-1-----|
E|---0-2-3-4-------------------4-2R|---0-2-3-4-------------------4-2R|

G|------------------------------------------------------|
D|-----------4-5-7R-6R-4-6-7-------4-6-7-6-4------------|
A|-----4-5-7-----------------4-6-7-----------7-6-4-2----|
E|---7-----------------------------------------------4-2|

G|---------------------------------|---------------------------------|
D|-----------------0-1-2-1---------|-----------------0-1-2-1---------|
A|-----------0-2-4---------4-1-----|-----------0-2-4---------4-1-----|
E|---0-2-3-4-------------------4-2R|---0-2-3-4-------------------4-2R|

G|---------------------------------|
D|-----------------0-1-2-1---------|
A|-----------0-2-4---------4-1-----|
E|---0-2-3-4-------------------4-2R|

G|------------------------------------------------------|
D|-----------4-5-7R-6R-4-6-7-------4-6-7-6-4------------|
A|-----4-5-7-----------------4-6-7-----------7-6-4-2----|
E|---7-----------------------------------------------4-2|

G|---------------------------------|---------------------------------|
D|-----------------0-1-2-1---------|-----------------0-1-2-1---------|
A|-----------0-2-4---------4-1-----|-----------0-2-4---------4-1-----|
E|---0-2-3-4-------------------4-2R|---0-2-3-4-------------------4-2R|

G|------------------------------------------------------|
D|-----------4-5-7R-6R-4-6-7-------4-6-7-6-4------------|
A|-----4-5-7-----------------4-6-7-----------7-6-4-2----|
E|---7-----------------------------------------------4-2|

G|---------------------------------|
D|-----------------0-1-2-1---------|
A|-----------0-2-4---------4-1-----|
E|---0-2-3-4-------------------4-2R|

G|---------------------------------------------------|
D|-----------4-5-7R-6R-4-6-7-------4-6-7-6-4---------|
A|-----4-5-7-----------------4-6-7-----------7-6-4-5-|
E|---7-----------------------------------------------|

G|--------------------------------------------------|
D|-------4-5-6-7-6-4--------------4-5-6-7-6-4-------|
A|-4-6-7-------------7-6-5-4-6-7--------------7-6-5-|
E|--------------------------------------------------|

G|----------------------------------|
D|-------4-5-6-7-6-4----------------|
A|-4-6-7-------------7-6-5-4R-------|
E|----------------------------------|




| /  slide up
| \  slide down
| h  hammer-on
| p  pull-off
| ~  vibrato
| +  harmonic
| x  Mute note
| R  Rest
Добавлено: 19.09.2013
Другие материалы по этой песне:
  • Аккорды и текст

Страница создана 19.09.2013
http://primanota.ru/stranglers/outside-tokyo-chords.htm
Привет, Гость.
Предлагаем пройти революционный курс по гитаре.
Подарок от PrimaNota.Ru, забирай!