PrimaNota.ru - самый крупный в мире бесплатный архив песенных текстов, аккордов, табулатур и нот


Story Of The Year - Remember A Time - бас-таба, видео

Регистрация Запомнить меня
Войти через:  Facebook Google Twitter Vk Yandex Mail.ru

Story Of The Year - Remember A Time - бас-таба, видео

Печатать
Просмотров: 87
F|-------------------------------------------------|
C|-------------------------------------------------|
G|-1-1-1-1-0-----------0-3-5-5-5-5-3-5-6-6-6-6-5-3-|
C|-----------5-3-3-3-3-----------------------------|

F|-----------------------------------------------------------|
C|-----------------------------------------------------------|
G|-1-1-1-1-0-------------------------------------------------|
C|-----------5-3-3-3-3-3-3-3-----5----------3-----5----------|

0:17
F|-------------------------------10--------------------------|
C|-8-10-12----------10-12-----------8---10----------7--------|
G|---------10-----8-------10-------------------8-10---10-----|
C|-----------------------------------------------------------|

0:30
F|--------------------------------------10------------------------|
C|---10-12--------8h10-8-10h12--------8----8-10----------7--------|
G|-8-------10------------------10-------------------8-10---10-----|
C|----------------------------------------------------------------|

0:44
F|----------------------------------------------------|
C|----------------------------------------------------|
G|-6-6-6-8-8-8-10-10-10-5-5-5-6-6-6-6-6-6-8-8-8-8-8-8-|
C|----------------------------------------------------|

F|----------------------------------------------------|
C|----------------------------------------------------|
G|-6-6-6-8-8-8-10-10-10-5-5-5-6-6-6-6-6-6-8\----------|
C|----------------------------------------------------|

0:58
F|-------------------------------------------------|
C|-------------------------------------------------|
G|-1-------0-----------0-3-5-5-5-5-3-5-6-6-6-6-5-3-|
C|-----------5-3-----------------------------------|

F|--------------------------------------------------------|
C|--------------------------------------------------------|
G|-1-1-1-1-0----------------------------------------------|
C|-----------5-3-3-3-3-3-3-3-5-5--53-5-5--53-5-5--53-5\---|

1:11
F|-------------------------------------------------|
C|-------------------------------------------------|
G|-1-------0-----------0-3-5-5-5-5-5-5-6-6-6-6-5-3-|
C|-----------5-3-----------------------------------|

F|-----------------------------------------------------|
C|-----------------------------------------------------|
G|-1-1-1-1-0-------------------------------------------|
C|-----------5-3-3-3-3-3-3-5----------3-----5----------|

1:28
F|---------------------------------10------------------------|
C|-8-10-12----------10-12--------8----8-10----------7--------|
G|---------10-----8-------10-------------------8-10---10-----|
C|-----------------------------------------------------------|

1:41
F|-----------------------------------------------------------------------------|
C|-----------------------------------------------------------------------------|
G|----------------3-5-------10\---1---3-----3-3-3-3-3-3------------------------|
C|-3---5--------3-----5---------------------------------3-3-3-5-5-5-5-5-5-5\---|

1:55
F|-------------------------------------------------|
C|-------------------------------------------------|
G|-1-------0-----------0-3-5-5-5-5-3-5-6-6-6-6-5-3-|
C|-----------5-3-----------------------------------|

F|--------------------------------------------------------|
C|--------------------------------------------------------|
G|-1-1-1-1-0----------------------------------------------|
C|-----------5-3-3-3-3-3-3-3-5-5--53-5-5--53-5-5--53-5\---|

2:08
F|-------------------------------------------------|
C|-------------------------------------------------|
G|-1-------0-----------0-3-5-5-5-5-5-5-6-6-6-6-5-3-|
C|-----------5-3-----------------------------------|

F|-------------------------------------------------------------------|
C|-------------------------------------------------------------------|
G|-1-1-1-1-0---------------------------------------------------------|
C|-----------5-3-3-3-3-3-3-5-----5-----5-----3-3-3-5-----5-----5-----|

F|-------------------------------------------------------|
C|-------------------------------------------------------|
G|---------------------------------------------------3-5-|
C|-8---3-5\----5-----5-----3-3-3-5-----5-5-5-5-5-5-5-----|

2:32
F|-------------------------------------------------|
C|-------------------------------------------------|
G|-6-6-6-6-5-3-6-6-6-6-5-3-3-3-3-3-1---3-3-3-3-1---|
C|-----------------------------------5-----------5-|

F|-------------------------------------------------|
C|-------------------------------------------------|
G|-6-6-6-6-5-3-6-6-6-6-5-3-1-1-1-1-1-1-------------|
C|-------------------------------------3-3-3-3-3-3-|

2:45
F|-------------------------------------------------|
C|-------------------------------------------------|
G|-6-6-6-6-5-3-6-6-6-6-5-3-3-3-3-3-1---3-3-3-3-1---|
C|-----------------------------------5-----------5-|

F|-------------------------------------------------------|
C|-------------------------------------------------------|
G|-6-6-6-6-5-3-6-6-6-6-5-3-8-8-8-8-8-8-10-10-10-13-13-13-|
C|-------------------------------------------------------|

Break
3:05
F|------------------------------------------------------------|
C|------------------------------------------------------------|
G|-5-3-1-1-1-1-0----------------------------------------------|
C|---------------5-3-3-3-3-3-3-3-5-5--53-5-5--53-5-5--53-5\---|

3:12
F|-------------------------------------------------|
C|-------------------------------------------------|
G|-1-1-1-1-0-----------0-3-5-5-5-5-3-5-6-6-6-6-5-3-|
C|-----------5-3-3-3-3-----------------------------|

F|--------------------------------------------------------|
C|--------------------------------------------------------|
G|-1-1-1-1-0----------------------------------------------|
C|-----------5-3-3-3-3-3-3-3-5-5--53-5-5--53-5-5--53-5\---|

3:25
F|-------------------------------------------------|
C|-------------------------------------------------|
G|-1-1-1-1-0---------------5-5-5-5-3-5-6-6-6-6-5-3-|
C|-----------5-3-----------------------------------|

F|--------------------------------------------------------|
C|-----------5--------------------------------------------|
G|-1-1-1-1-0----------------------------------------------|
C|-------------3-3-3-3-3-3-3-5-5--53-5-5--53-5-5--53-5\---|

F|-------------------------------------------------|
C|-------------------------------------------------|
G|-1-1-1-1-0-----------0-3-5-5-5-5-3-5-6-6-6-6-5-3-|
C|-----------5-3-3-3-3-----------------------------|

F|-------------------------------------------------------------------|
C|-------------------------------------------------------------------|
G|-1-1-1-1-0---------------------------------------------------------|
C|-----------5-3-3-3-3-3-3-5-----5-----5-----3-3-3-5-----5-----5-----|

F|------------------------------------------------------------|
C|------------------------------------------------------------|
G|------------------------------------------------------------|
C|-8---3-5\----5-----5-----3-3-3-5-----5-----5-----8---3-5\---|
Добавлено: 02.07.2013
Другие материалы по этой песне:
  • Аккорды и текст

Страница создана 02.07.2013
http://primanota.ru/story-of-the-year/remember-a-time-chords.htm
Привет, Гость.
Предлагаем пройти революционный курс по гитаре.
Подарок от PrimaNota.Ru, забирай!