PrimaNota.ru - самый крупный в мире бесплатный архив песенных текстов, аккордов, табулатур и нот


Story Of The Year - Won Threw Ate - бас-таба, видео

Регистрация Запомнить меня
Войти через:  Facebook Google Twitter Vk Yandex Mail.ru

Story Of The Year - Won Threw Ate - бас-таба, видео

Печатать
Просмотров: 88
F|--------------|
C|o------------o|
G|o------------o| x16
C|--5-5--3-5-3--|

0:26            x8
F|----|--------------|
C|----|o------------o|
G|----|o------------o|
C|-7\-|--5-5--3-5----|

0:36
F|-----------------|
C|-----------------|
G|-----------------|
C|-3-----------6-6-|

0:42        x8
F|--------------|
C|o------------o|
G|o------------o|
C|--5-5--3-5----|

0:51
F|------------------|
C|------------------|
G|------------------|
C|-3----------6-6-6-|

0:56
F|----------------------------------------------|
C|----------------------------------------------|
G|----------------------------------------------|
C|-555-------555-------555-------5-7-3----3/7\3-|

1:03
F|--------------------------------|
C|--------------------------------|
G|--------------------------------|
C|-5-5-555-5-55555--8--7--3-5-8-7-|

1:06
F|--------------------------------|
C|--------------------------------|
G|----------------------------6-8-|
C|-5-5-555-5-55555--8--8--10------|

1:09
F|--------------------------------|
C|--------------------------------|
G|--------------------------------|
C|-5-5-555-5-55555--8--7--3-5-8-7-|

1:13
F|-------------------------------------------------------|
C|-------------------------------------------------------|
G|-3-33333-3-33336-5-5-5-5---5-5-5-5---5-5-5-5---5-5-5-5-|
C|-------------------------------------------------------|

1:21        x8
F|--------------|
C|o------------o|
G|o------------o|
C|--5-5--3-5----|

1:30
F|------------------|
C|------------------|
G|------------------|
C|-3------------3/\-|

1:36         x8
F|--------------|
C|o------------o|
G|o------------o|
C|--5-5--3-5-3--|

1:46
F|--------------------|
C|--------------------|
G|--------------------|
C|-3----------6-6-6-6-|

1:51
F|----------------------------------------------|
C|----------------------------------------------|
G|----------------------------------------------|
C|-555-------555-------555-------5-7-3----3/7\3-|

1:58
F|--------------------------------|
C|--------------------------------|
G|--------------------------------|
C|-5-5-555-5-55555--8--7--3-5-8-7-|

2:01
F|--------------------------------|
C|--------------------------------|
G|----------------------------6-8-|
C|-5-5-555-5-55555--8--8--10------|

2:05
F|--------------------------------|
C|--------------------------------|
G|--------------------------------|
C|-5-5-555-5-55555--8--7--3-5-8-7-|

2:08
F|--------------------------------|
C|--------------------------------|
G|-3-33333-3-33336-5-5-5-5-/15----|
C|--------------------------------|

2:11
F|-------------------------------------------------------------|
C|-------------------------------------------------------------|
G|-6-66666-6-66666-8-88888-8-88888-10-1010101010-10-1010101010-|
C|-------------------------------------------------------------|

F|---------------------------------------------------------------------------|
C|---------------------------------------------------------------------------|
G|-5-55555-5-55555-6-66666-6-66666-8-88888-8-88888---------------------------|
C|-------------------------------------------------5-5--3-5---5-5--3-5---3/\-|

2:24
F|-------------------------------------------------------------|
C|-------------------------------------------------------------|
G|-6-66666-6-66666-8-88888-8-88888-10-1010101010-10-1010101010-|
C|-------------------------------------------------------------|

F|-------------------------------------------------------------|
C|-------------------------------------------------------------|
G|-5-55555-5-55555-6-66666-6-66666-8-88888-/20-2020202020------|
C|-------------------------------------------------------------|

2:40
F|-------------------------------------------------------------|
C|-------------------------------------------------------------|
G|-------------------------------------------------------------|
C|-7\-5-5--3-5-----5-5--3-5-----5-5--3-5-----5-5---3-5----3/7\-|

F|----------------------------------------------------------|
C|----------------------------------------------------------|
G|----------------------------------------------------------|
C|-5-5--3-5-----5-5--3-5-----5-5--3-5-----5-5---3-5----3/7\-|

2:54
F|------------------------|
C|------------------------|
G|------------------------|
C|-3----------6-6-6-6-6-5-|

3:02
F|------------------------------|
C|------------------------------|
G|------------------------------|
C|-7-8-3--/7-5------7-8-3--/8---|

3:07
F|--------------------------------|
C|--------------------------------|
G|--------------------------------|
C|-5-5-555-5-55555--8--7--3-5-8-7-|

3:10
F|--------------------------------|
C|--------------------------------|
G|----------------------------6-8-|
C|-5-5-555-5-55555--8--8--10------|

3:14
F|--------------------------------|
C|--------------------------------|
G|--------------------------------|
C|-5-5-555-5-55555--8--7--3-5-8-7-|

3:17
F|-----------------------------------------------------------------|
C|-----------------------------------------------------------------|
G|-3-33333-3-33336-5-5-5-5---5-5-5-5---5-5-5-5---6--6--6--8--8--8--|
C|-----------------------------------------------------------------|

3:25        x7
F|--------------|-------------------------------------|
C|o------------o|-------------------------------------|
G|o------------o|-------------------------------------|
C|--5-5--3-5----|-5-5-5-5-5-5-5---6-6-6-6-6-6-6---5---|
Tabbed by Dave Vucko
Добавлено: 26.09.2013
Другие материалы по этой песне:
  • Аккорды и текст

Страница создана 26.09.2013
http://primanota.ru/story-of-the-year/won-threw-ate-chords.htm
Привет, Гость.
Предлагаем пройти революционный курс по гитаре.
Подарок от PrimaNota.Ru, забирай!