PrimaNota.ru - самый крупный в мире бесплатный архив песенных текстов, аккордов, табулатур и нот


Stone Temple Pilots - Unglued - аккорды и текст, таба, бас-таба, драм-таба, видео

Регистрация Запомнить меня
Войти через:  Facebook Google Twitter Vk Yandex Mail.ru

Stone Temple Pilots - Unglued - аккорды и текст, таба, бас-таба, драм-таба, видео

Печатать
Просмотров: 235
Unglued
Stone Temple Pilots
		   album"Purple". My Name is Aaron. Email me at mcwa@ix.netcom.com
and tell how awesome I am for posting this tab. Here It Is!

OPENING RIFF

e|---------------------------------------------------
B|---------------------------------------------------
G|---------------------------------------------------
D|---------------------------------------------------
A|--------------5\7\5-------------5\7\5--------------
E|--0-0-0-0-0-0-------0-0-0-0-0-0--------------------

VERSE RIFF

e|---------------------------------------------------
B|---------------------------------------------------
G|---------------------------------------------------
D|---------------------------------------------------
A|---------------------------------------------------
E|--0-0-0-0-0-----0-0-0-0-0-----0-0-0-0-0---0-0-0-0-0

CHORUS

e|---------------------------------------------------------------------
B|---------------------------------------------------------------------
G|--9-9--5-5-5-------5-5-5--9-9--5-5-5-----------7-7-7-7--6-6-6-6--5---
D|--9-9--5-5-5--7-7--5-5-5--9-9--5-5-5--7-7-7-7--7-7-7-7--6-6-6-6--5---
A|--7-7--3-3-3--7-7--3-3-3--7-7--3-3-3--7-7-7-7--5-5-5-5--4-4-4-4--3---
E|--------------5-5---------------------5-5-5-5------------------------

THAT'S IT! EXCEPT FOR THE SOLO, WHICH I'LL POST LATER. SEE YA!



Tabbed by Andy Harline

Here it is:

Intro and main riff
e--------------------------
B--------------------------
G--------------------------
D--2-2-2-2-2-2-0h2p0-------
A--2-2-2-2-2-2-------------
E--0-0-0-0-0-0-------------

The verse repeats pretty much the same as the intro
e--X-X-X-X-X----X-X----X-X-X-X-X---------
B--X-X-X-X-X----X-X----X-X-X-X-X---------
G--X-X-X-X-X----X-X----X-X-X-X-X---------
D--2-2-2-2-2----X-X----2-2-2-2-2---------
A--2-2-2-2-2----X-X----2-2-2-2-2---------
E--0-0-0-0-0----X-X----0-0-0-0-0---------

Chorus:
e-------------------
B-------------------
G-------------------
D-7-7-/10-10-10-10--
A-7-7-/10-10-10-10--
E-5-5-/-8--8--8--8--

Post-Chorus
e-5--5-5--5-5-/-2--2-2--2-2----3--
B-7--7-7--7-7-/-2--2-2--2-2----5--
G-7--7-7--7-7-/-2--2-2--2-2----5--
D-7--7-7--7-7-/-2--2-2--2-2----5--
A-5--5-5--5-5-/-4--4-4--4-4----3--
E-X--X-X--X-X-/-X--X-X--X-X----X--

Thats it! Have fun with this song

If you have any questions, comments, or requests, email me!!     
Добавлено: 26.10.2013
Другие материалы по этой песне:

Страница создана 27.02.2012
http://primanota.ru/stone-temple-pilots/unglued-chords.htm
Привет, Гость.
Предлагаем пройти революционный курс по гитаре.
Подарок от PrimaNota.Ru, забирай!