PrimaNota.ru - самый крупный в мире бесплатный архив песенных текстов, аккордов, табулатур и нот


Sting - We'll be Together - текст песни, бас-таба, видео

Регистрация Запомнить меня
Войти через:  Facebook Google Twitter Vk Yandex Mail.ru

Sting - We'll be Together - текст песни, бас-таба, видео

Печатать
Просмотров: 268
Уроки эстрадного вокала в Санкт-Петербурге
Sting-We'll Be Together

TablEdited by Jan Bjorklund, Finland  jani_bjorklund@yahoo.se>
You are welcome to request for tabs!
Fingering and positions as suggested by TablEdit, please use common sense!

TablEdited by Jan Bjorklund
Tuning : E A D G 	Time Signature: 4/4

   |       |       |       |          |       |       |       |
|----------------------------------||---------------------------------|
|---------------------0------------|*0---0-----------------------0----|
|----------------------------------|*--------3-------3---3------------|
|----------------------------------||---------------------------------|

   |       |       |       |          |       |       |       |
|----------------------------------|---------------------------------||
|-----0----------------------------|-0---0-----------------------0---||
|-3---------------------------3----|---------3-------3---3-----------||
|-------------1--------------------|---------------------------------||

 >1|       |       |       |        >2|       |       |       |
|---------------------------------||----------------------------------|
|-----0---------------------------*|-----0-------------------------0--|
|-3---------------------------0---*|-3-----------------------0--------|
|-------------1-----3-3---4-------||-------------1---3---4-------1----|

   |       |       |       |          |       |       |       |
|----------------------------------|----------------------------------|
|-0---0-----------------------0----|----------------------------------|
|---------3-------3---3------------|-3-------2-------------------3----|
|----------------------------------|-------------1--------------------|

   |       |       |       |          |       |       |       |
|----------------------------------|----------------------------------|
|-0---0-----------------------0----|----------------------------------|
|---------3-------3---3------------|-3-------2-------------------0----|
|----------------------------------|-------------1-----3-3---4--------|

   |       |       |       |          |       |       |       |
|----------------------------------|----------------------------------|
|-0---0-----------------------0----|----------------------------------|
|---------3-------3---3------------|-3-------2-------------------0----|
|----------------------------------|-------------1-------3---4--------|

   |       |       |       |          |       |       |       |
|----------------------------------|----------------------------------|
|-0---0-----------------------0----|----------------------------------|
|---------3-------3---3------------|-3-------2-------------------0----|
|----------------------------------|-------------1-------3---4--------|

   |       |       |       |        >3|       |       |       |
||---------------------------------|---------------------------------||
|*---------------------------------|-------------------------0-------*|
|*---------------------------------|-------------3-------4-----------*|
||3---3---1-------1---1-------3----|-1-------1-------------------1---||

   |       |       |       |          |       |       |       |
|----------------------------------|----------------------------------|
|----------------------------------|-------------------------0--------|
|-----------------------------0----|----------------------------------|
|-3---3---1-------1---3---4--------|----------------------------------|

   |       |       |       |          |       |       |       |
|----------------------------------|----------------------------------|
|-0---0-----------------------0----|-----------------------------0----|
|---------3-------3---3------------|-3-----------------------0--------|
|----------------------------------|-------------1---3---4------------|

   |       |       |       |          |       |       |       |
|----------------------------------|---------------------0/1----------|
|-0---0-----------------------0----|-----------------0-0-----3---0----|
|---------3-------3---3------------|-3-------2------------------------|
|----------------------------------|-------------1--------------------|

   |       |       |       |          |       |       |       |
|----------------------------------|----------------------------------|
|-0---0-----------------------0----|-------------------------0--------|
|---------3-------3---3------------|----------------------------------|
|----------------------------------|-------------1--------------------|

   |       |       |       |          |       |       |       |
|-------------------------------0--|----------------------------------|
|----------------------------------|-------------------------0--------|
|-----------------------------0/---|----------------------------------|
|-3---3---1-------1---3---4--------|----------------------------------|

   |       |       |       |          |       |       |       |
|----------------------------------|----------------------------------|
|----------------------------------|---------2---------------3--------|
|-3-------2-------------------0----|----------------------------------|
|-------------1-------3---4--------|-----------------1---1------------|

   |       |       |       |          |       |       |       |
|----------------------------------|----------------------------------|
|-2---3---------------0-------0/2--|---------0---2-----------3--------|
|----------------------------------|-----2----------------------------|
|---------1---0---0----------------|-----------------1---1------------|

   |       |       |       |          |       |       |       |
|----------------------------------|----------------------------------|
|-2---3----------------------------|---------0---------------3--------|
|----------------------------------|----------------------------------|
|---------1---0--------------------|-----------------1---1-------1----|

   |       |       |       |          |       |       |       |
|----------------------------------|----------------------------------|
|-2---3---------------0-------0/2--|-------------0-----------3--------|
|----------------------------------|-----0---2------------------------|
|---------1---0---0----------------|-----------------1---1------------|

   |       |       |       |          |       |       |       |
|----------------------------------|----------------------------------|
|-2---3----------------------------|---------3-0-----0---0------------|
|----------------------------------|-0---3-------------------3--------|
|---------1---0---------3-3---4----|----------------------------------|

   |       |       |       |          |       |       |       |
||---------------------------------|----------------------------------|
|*------------0--------------------|-----------------0---0------------|
|*3---3-----------3-------2--------|-------------0-----------3--------|
||----------------------------1----|-----3---4------------------------|

   |       |       |       |          |       |       |       |
|----------------------------------|---------------------------------||
|-------------0--------------------|-------------0---0---0-----------*|
|-3---3-----------3-------2--------|---------0---------------3-------*|
|-----------------------------1----|-3---4---------------------------||

   |       |       |       |          |       |       |       |
|----------------------------------|----------------------------------|
|-------------0--------------------|-----------------0---0------------|
|-3---3-----------3-------2--------|-------------0-----------3--------|
|-----------------------------1----|-----3---4------------------------|

   |       |       |       |          |       |       |       |
|----------------------------------|----------------------------------|
|-------------0--------------------|-------------0--------------------|
|-3---3-----------3-------2--------|---------0------------------------|
|-----------------------------1----|-3---4-----------3---3---1--------|

   |       |       |       |          |       |       |       |
||---------------------------------|---------------------------------||
|*---------------------------------|---------0-----------------------||
|*----------------------------3----|-----4---------------------------||
||1---1-------3---1-------1--------|-------------1---3---3---1-------||

 >1|       |       |       |          |       |       |       |
|----------------------------------|---------------------------------||
|----------------------------------|-----0---------------------------*|
|-----------------------------3----|-4-------------------------------*|
|-1---1-------3---1-------1--------|---------1---3---3---3---1-------||

 >2|       |       |       |          |       |       |       |
|----------------------------------|-2---5----------------------------|
|----------------------------------|---------5/6-3--------------------|
|-------------0--------------------|-----------------5---5---3--------|
|-1---3---4------------------------|----------------------------------|

   |       |       |       |          |       |       |       |
|----------------------------------|-----0/1--------------------------|
|-------------0--------------------|-0-0-----3---0--------------------|
|-3---3-----------3-------3--------|----------------------------------|
|-----------------------------1----|----------------------------------|

   |       |       |       |          |       |       |       |
|----------------------------------|----------------------------------|
|----------------------------------|----------------------------------|
|----------------------------------|----------------------------------|
|----------------------------------|----------------------------------|

   |       |       |       |          |       |       |       |
|----------------------------------|-----------------3---3---3---3----|
|----------------------------------|----------------------------------|
|----------------------------------|----------------------------------|
|----------------------------------|----------------------------------|

   |       |       |       |          |       |       |       |
||3---3---3---3---0---0---0---0----|-------------7/5-----------------||
|*---------------------------------|-5-5-6-6-7-----------------------||
|*---------------------------------|-----------------5---5---5---5---||
||---------------------------------|---------------------------------||

 >1|       |       |       |          |       |       |       |
|-------------7--------------------|-121310--121310------------------||
|----------------------------------|---------------------------------*|
|-5---5---5-------5---5---5---5----|-----------------13--13--13--13--*|
|----------------------------------|---------------------------------||

 >2|       |       |       |          |       |       |       |
|-------------7--------------------|---------0---2---3---3---3---3----|
|----------------------------------|-0-0-3----------------------------|
|-5---5---5-------------------4-4--|----------------------------------|
|-----------------5-5-7---8--------|----------------------------------|

   |       |       |       |          |       |       |       |
|-3---3---3---2-1-0---0---0---0----|-------------7/5------------------|
|----------------------------------|-5-5-6-6-7------------------------|
|----------------------------------|-----------------5---5---5---5----|
|----------------------------------|----------------------------------|

   |       |       |       |          |       |       |       |
|---2---2-5---2-------2------------|-------------7-5------------------|
|-------------------------3-----5--|---5-5-----------8---8---8---8----|
|-5---------------5----------------|-----------5----------------------|
|----------------------------------|---------8------------------------|

 >3|       |       |       |        >4|       |       |       |
|-121310--121210-------------------|-------------7---------------7----|
|-------12------12-----------------|-------------------------------7--|
|-----------------13--13--13--13---|-5---5---5-------5---5---5--------|
|----------------------------------|----------------------------------|

   |       |       |       |          |       |       |       |
|---------121310-------------------|-3---3---3---3---0---0---0---0-0--|
|-12--1212-------------------------|----------------------------------|
|-----------------13--13--13--13---|----------------------------------|
|----------------------------------|----------------------------------|

   |       |       |       |          |       |       |       |
|-5---6-6-7---7/5------------------|-------------7--------------------|
|----------------------------------|---------7------------------------|
|-----------------5---5---5---5----|-5---5-----------5---5---5---5----|
|----------------------------------|----------------------------------|

   |       |       |       |          |       |       |       |
|-5-7---5--------------------------|-3---3---3---3---0---0---0---0----|
|-----7---5-7---7-8---8---8---8----|----------------------------------|
|-------------8--------------------|----------------------------------|
|----------------------------------|----------------------------------|

   |       |       |       |          |       |       |       |
|-0-0-0-0-2---0/2------------------|-------------7---------------5----|
|-----------------0---0---0---0----|-------------------------7--------|
|----------------------------------|-5---5---5-------5---5------------|
|----------------------------------|----------------------------------|

   |       |       |       |        >5|       |       |       |
|-1210--12121310-------------------|-5-7---5--------------------------|
|-----12---------------------------|-----7---5-7---7-8---8---8---8-8--|
|-----------------13--13--13--13---|-------------8--------------------|
|----------------------------------|----------------------------------|

   |       |       |       |          |       |       |       |
|-14------12-----------------------|---------12-----------------------|
|-----1512----1512-----------------|-12----------1212-----------------|
|-----------15---------------------|-----1212--------13--13--13--13---|
|-----------------15--15--15--15---|----------------------------------|

   |       |       |       |          |       |       |       |
|-3---3---3---3---0---0---0---0----|-------------7/5-------------7-5--|
|----------------------------------|-5-5-6-6-7------------------------|
|----------------------------------|-----------------5---5-5---5------|
|----------------------------------|----------------------------------|

   |       |       |       |          |       |       |       |
|---5-----5-------------------7-5--|---5---2-5-2---2-3---3---3---3-3--|
|-----5-7---7-5-7------------------|-----5-------5--------------------|
|-----------------5---5-5---5------|----------------------------------|
|----------------------------------|----------------------------------|

   |       |       |       |          |       |       |       |
|-------15-------------------------|-121310--121310-------------------|
|----------------------------------|----------------------------------|
|-131313----1312-------------------|----------------------------------|
|---------------1615--15--15--15---|----------------------------------|


Created with TablEdit http://www.tabledit.com/

     
Добавлено: 18.06.2013
Другие материалы по этой песне:
  • Аккорды и текст

Страница создана 08.04.2012
http://primanota.ru/sting/well-be-together-chords.htm
Привет, Гость.
Предлагаем пройти революционный курс по гитаре.
Подарок от PrimaNota.Ru, забирай!