PrimaNota.ru - самый крупный в мире бесплатный архив песенных текстов, аккордов, табулатур и нот


Sting - Windmills Of Your Mind - текст песни, бас-таба, видео

Регистрация Запомнить меня
Войти через:  Facebook Google Twitter Vk Yandex Mail.ru

Sting - Windmills Of Your Mind - текст песни, бас-таба, видео

Печатать
Просмотров: 814
Basstab by Jan Bjorklund, Finland; 
jani_bjorklund@yahoo.se 
You are welcome to request for basstabs!
Bienvenidos a pedirme transcripciones para el bajo!


TablEdited by Jan Bjorklund
Tuning : B E A D G 	Time Signature: 4/4

 |       |       |       |        |       |       |       |        
|--------------0-----------------|--------------0-------1---------|
|--------------------------------|--------------------------------|
|------3-------------------------|------3-------------------------|
|1-------------------------------|1-------------------------------|
|--------------------------------|--------------------------------|

 |       |       |       |        |       |       |       |        
|--------------0-----------------|--------------0-------1---------|
|--------------------------------|--------------------------------|
|------3-------------------------|------3-------------------------|
|1-------------------------------|1-------------------------------|
|--------------------------------|--------------------------------|

 |       |       |       |        |       |       |       |        
|--------------0-----------------|--------------1-----------------|
|--------------------------------|--------------------------------|
|------3-------------------------|------4-------------------------|
|1-------------------------------|1-------------------------------|
|--------------------------------|--------------------------------|

 |       |       |       |        |       |       |       |        
|--------------5-6-----5---------|--------------3-----------------|
|--------------------------------|------2-------------------------|
|------5-------------------------|--------------------------------|
|--------------------------------|1-------------------------------|
|6-------------------------------|--------------------------------|

 |       |       |       |        |       |       |       |        
|--------------1-----------------|2-------------5-----------------|
|--------------------------------|------3-------------------------|
|------3-------------------------|--------------------------------|
|1-------------------------------|--------------------------------|
|--------------------------------|--------------------------------|

 |       |       |       |        |       |       |       |        
|3-------------6-----------------|8-------------11----------------|
|------3-------------------------|------8-------------------------|
|--------------------------------|--------------------------------|
|--------------------------------|--------------------------------|
|--------------------------------|--------------------------------|

 |       |       |       |        |       |       |       |        
|1-------------------------------|--------------6-----------------|
|------2-------3-----------------|6-----3-------------------------|
|--------------------------------|--------------------------------|
|--------------------------------|--------------------------------|
|--------------------------------|--------------------------------|

 |       |       |       |        |       |       |       |        
|0-------------3-----------------|--------------3-----------------|
|------3-------------------------|------2-------------------------|
|--------------------------------|3-------------------------------|
|--------------------------------|--------------------------------|
|--------------------------------|--------------------------------|

 |       |       |       |        |       |       |       |        
|4---------------3---------------|3-------3-----4-----------------|
|--------------------------------|--------------------------------|
|--------------------------------|--------------------------------|
|--------------------------------|--------------------------------|
|--------------------------------|--------------------------------|

 |       |       |       |        |       |       |       |        
|--------------0-----------------|------------0-----1-------------|
|3-------------------------------|3-------------------------------|
|------3-------------------------|------3-------------------------|
|--------------------------------|--------------------------------|
|--------------------------------|--------------------------------|

 |       |       |       |        |       |       |       |        
|--------------0-----------------|--------------1-----------------|
|3-------------------------------|3-------------------------------|
|------3-------------------------|------4-------------------------|
|--------------------------------|--------------------------------|
|--------------------------------|--------------------------------|

 |       |       |       |        |       |       |       |        
|--------------1-----------------|--------------3-----------------|
|3-----0-------------------------|3-----2-------------------------|
|--------------------------------|--------------------------------|
|--------------------------------|--------------------------------|
|--------------------------------|--------------------------------|

 |       |       |       |        |       |       |       |        
|--------------1-----------------|2-------------2-----------------|
|3-------------------------------|------3-------------------------|
|------3-------------------------|--------------------------------|
|--------------------------------|--------------------------------|
|--------------------------------|--------------------------------|

 |       |       |       |        |       |       |       |        
|3-------------3-----------------|--------------8-----------------|
|------3-------------------------|------8-------------------------|
|--------------------------------|6-------------------------------|
|--------------------------------|--------------------------------|
|--------------------------------|--------------------------------|

 |       |       |       |        |       |       |       |        
|1-------------3-----------------|--------------6-----------------|
|------1-------------------------|6-----3-------------------------|
|--------------------------------|--------------------------------|
|--------------------------------|--------------------------------|
|--------------------------------|--------------------------------|

 |       |       |       |        |       |       |       |        
|0-------------3-----------------|--------------3-----------------|
|--------------------------------|------2-------------------------|
|------4-------------------------|3-------------------------------|
|--------------------------------|--------------------------------|
|--------------------------------|--------------------------------|

 |       |       |       |        |       |       |       |        
|4---------------3---------------|4-------5-----------------------|
|--------------------------------|--------------------------------|
|--------------------------------|--------------------------------|
|--------------------------------|--------------------------------|
|--------------------------------|--------------------------------|

 |       |       |       |        |       |       |       |        
|--------------0-----------------|------------0-----1-------------|
|3-------------------------------|3-------------------------------|
|------3-------------------------|------3-------------------------|
|--------------------------------|--------------------------------|
|--------------------------------|--------------------------------|

 |       |       |       |        |       |       |       |        
|--------------0-----------------|--------------------2-----------|
|3-------------------------------|3-----------3-------------------|
|------3-------------------------|------3-------------------------|
|--------------------------------|--------------------------------|
|--------------------------------|--------------------------------|

 |       |       |       |        |       |       |       |        
|3-------------3-----------------|----------------8---8-----------|
|------3-------------------------|8-----8-------8-----------------|
|--------------------------------|------------6-----------6-------|
|--------------------------------|--------------------------------|
|--------------------------------|--------------------------------|

 |       |       |       |        |       |       |       |        
|----------------3-----------6-7-|8-------------------------------|
|6-----6-------3---------6-------|----------------6---------------|
|------------6-------------------|--------------------------------|
|--------------------------------|--------------------------------|
|--------------------------------|--------------------------------|

 |       |       |       |        |       |       |       |        
|--------------8-----------------|----------------0-----0---------|
|------6-------------------------|0-------0-----------------------|
|--------------------------------|------------------------2-----2-|
|9-------------------------------|--------------------------------|
|--------------------------------|--------------------------------|

 |       |       |       |        |       |       |       |        
|--------------------------------|2-------------2---------2-------|
|--------------------------------|----------------3---3-----------|
|3-------------3-1---1-----------|--------------------------------|
|--------------------------------|--------------------------------|
|--------------------------------|--------------------------------|

 |       |       |       |        |       |       |       |        
|3-------------------------------|----------------0-------0-------|
|----------------------------3---|1-------------1-1---1---1-------|
|--------------------------------|--------------------------------|
|--------------------------------|----------------3-------3-------|
|--------------------------------|--------------------------------|

 |       |       |       |        |       |       |       |        
|1-------4---1-------1-------1---|----------------1---------------|
|--------------------------------|--------------------------------|
|--------------------------------|4-------------4---------4-------|
|--------------------------------|--------------------------------|
|--------------------------------|--------------------------------|

 |       |       |       |        |       |       |       |        
|0---------------------0-1---3-4-|5-------------------------------|
|--------------------------------|--------------------------------|
|--------------------------------|--------3-----------------------|
|--------------------------------|--------------------------------|
|--------------------------------|--------------------------------|

 |       |       |       |        |       |       |       |        
|--------------0-----------------|--------------1-----------------|
|3-------------------------------|3-------------------------------|
|------3-------------------------|------4-------------------------|
|--------------------------------|--------------------------------|
|--------------------------------|--------------------------------|

 |       |       |       |        |       |       |       |        
|----------4---5-----------------|--------------3-----------------|
|3-------------------------------|3-----2-------------------------|
|------5-------------------------|--------------------------------|
|--------------------------------|--------------------------------|
|--------------------------------|--------------------------------|

 |       |       |       |        |       |       |       |        
|4---------------3---------------|----------------------1-3---4---|
|--------------------------------|5-------------------------------|
|--------------------------------|--------------------------------|
|--------------------------------|--------------------------------|
|--------------------------------|--------------------------------|

 |       |       |       |        |       |       |       |        
|--------------------------------|--------------0-----------------|
|--------------------------------|3-------------------------------|
|3-------3-----------------------|------3-------------------------|
|--------------------------------|--------------------------------|
|--------------------------------|--------------------------------|

 |       |       |       |        |       |       |       |        
|------5-------------------------|------5-------------------------|
|3-------------5-------6---------|3-------------5-----------------|
|--------------------------------|--------------------------------|
|--------------------------------|--------------------------------|
|--------------------------------|--------------------------------|

 |       |       |       |        |       |       |       |        
|------5-------5-----------------|5-------5-----4-5-5-------5-3---|
|3---------------5-----------4-5-|--------------------------------|
|--------------------------------|--------------------------------|
|--------------------------------|--------------------------------|
|--------------------------------|--------------------------------|

 |       |       |       |        |       |       |       |        
|--------------------2-------2---|3-----1-3-----1-3-3-------3-1---|
|3-------------3-3-3-------3-----|--------------------------------|
|--------------------------------|--------------------------------|
|--------------------------------|--------------------------------|
|--------------------------------|--------------------------------|

 |       |       |       |        |       |       |       |        
|--------------0-------0---------|--------5-----------------------|
|1-------------------------------|6-----6-------6---------6-------|
|--------------------------------|----------------6---6-6---------|
|--------------------------------|--------------------------------|
|--------------------------------|--------------------------------|

 |       |       |       |        |       |       |       |        
|--------6-----------------------|------------------------3---5-3-|
|--------------------------------|5-----------------5---5---------|
|4-------------4-4---4-4-4-------|--------------------------------|
|----------------------------6-4-|--------------------------------|
|--------------------------------|--------------------------------|

 |       |       |       |        |       |       |       |        
|--------------------------------|--------------0-----------------|
|--------------------------------|3-------------------------------|
|3-------3-----------------------|------3-------------------------|
|--------------------------------|--------------------------------|
|--------------------------------|--------------------------------|

 |       |       |       |        |       |       |       |        
|--------------1-----------------|--------------4-----------------|
|3-------------------------------|3-------------------------------|
|------4-------------------------|------5-------------------------|
|--------------------------------|--------------------------------|
|--------------------------------|--------------------------------|

 |       |       |       |        |       |       |       |        
|--------------3-----------------|4-------------4---3---------3-2-|
|------2-------------------------|--------------------------------|
|--------------------------------|--------------------------------|
|1-------------------------------|--------------------------------|
|--------------------------------|--------------------------------|

 |       |       |       |        |       |       |       |        
|0---------------------0-2---3---|--------------------------------|
|--------------------------------|--------------------------------|
|--------------------------------|3-------3-----------------------|
|--------------------------------|--------------------------------|
|--------------------------------|--------------------------------|

 |       |       |       |        |       |       |       |        
|--------------0-----------------|--------------0-------1---------|
|3-------------------------------|3-------------------------------|
|------3-------------------------|------3-------------------------|
|--------------------------------|--------------------------------|
|--------------------------------|--------------------------------|

 |       |       |       |        |       |       |       |        
|------5-------------------------|------------0---1---------------|
|3-------------5-----------------|3-------------------------------|
|--------------------------------|------3-------------------------|
|--------------------------------|--------------------------------|
|--------------------------------|--------------------------------|

 |       |       |       |        |       |       |       |        
|--------------0-----------------|--------------0-------1---------|
|3-------------------------------|3-------------------------------|
|------3-------------------------|------3-------------------------|
|--------------------------------|--------------------------------|
|--------------------------------|--------------------------------|

 |       |       |       |        |       |       |       |        
|--------------0-----------------|----------------0-----1---------|
|3-------------------------------|3-------------------------------|
|------3-------------------------|------3-------------------------|
|--------------------------------|--------------------------------|
|--------------------------------|--------------------------------|

 |       |       |       |        |       |       |       |        
|--------------0-----------------|--------------0-------1---------|
|3-------------------------------|3-------------------------------|
|------3-------------------------|------3-------------------------|
|--------------------------------|--------------------------------|
|--------------------------------|--------------------------------|

 |       |       |       |        |       |       |       |        
|--------------0-----------------|--------------0-----------------|
|3-------------------------------|3-------------------------------|
|------3-------------------------|------3-------------------------|
|--------------------------------|--------------------------------|
|--------------------------------|--------------------------------|


Transcribe! 5.8 transcription http://www.seventhstring.demon.co.uk/
Created with TablEdit http://www.tabledit.com/


     
Добавлено: 09.08.2013
Другие материалы по этой песне:
  • Аккорды и текст

Страница создана 09.06.2012
http://primanota.ru/sting/windmills-of-your-mind-chords.htm
Привет, Гость.
Предлагаем пройти революционный курс по гитаре.
Подарок от PrimaNota.Ru, забирай!