PrimaNota.ru - самый крупный в мире бесплатный архив песенных текстов, аккордов, табулатур и нот


Sting - Taking The Inside Rail - бас-таба, видео

Регистрация Запомнить меня
Войти через:  Facebook Google Twitter Vk Yandex Mail.ru

Sting - Taking The Inside Rail - бас-таба, видео

Печатать
Просмотров: 203
Уроки эстрадного вокала в Санкт-Петербурге
Artist: Sting
Song:   Taking The Inside Rail
Album:  Part of the Soundtrack of “Racing Stripes”

(Tabbed by Oli - oli@elepost.de)


This tablature is a helping sketch. It doesn't contain the correct 
sort of bars and notes. Nevertheless, I'm sure you'll be able to 
figure out and hope it will help you!


  INTRO (AD LIB):
G|--4-4-4-4-4-4-4-4-4-4-4-4-4-4-4-4-4-4-4-4-4-4-4-4-4-4-4-4-4-4-4-4-4-4-4-|
D|------------------------------------------------------------------------|
A|-2-2-2-2-2-2-2-2-2-2-2-2-2-2-2-2-2-2-2-2-2-2-2-2-2-2-2-2-2-2-2-2-2-2-2--|
E|------------------------------------------------------------------------|


  MAIN RIFF VERSES 1 + 2:
G|------------------------------------------------------------------------|
D|------------------------------------------------------------------------|
A|-----0~-----------------------------------------------------------------|
E|-2~------0~--2~---------------------------------------------------------|

  ...I hear the accusations when they talk behind my back

  BRIDGE TO REFRAIN:
G|------------------------------------------------------------------------|
D|-------------------------------1--2-------------------------------------|
A|---------2~--4~---4~-----2--4-------------------------------------------|
E|-4~--0~---------------0~------------------------------------------------|

  REFRAIN:
G|------------------------------------------------------------------------|
D|------------------------------------------------------------------------|
A|-0~----------0~----------3~--5~----0~----------0~----3~--5~----0~-------|
E|-----1~--3~------1~--3~----------------1~--3~---------------------------|


  BRIDGE (3x):                              |BRIDGE TO INTERLUDE
G|-------7-9----------------12--------------------------------------------|
D|-----7--------------10-10-----------------------------------------------|
A|---5--------------8------------------------------------------0~---------|
E|---------------------------------------------------------------------2~-|
  Last night I had a different dream...     ...and I'm half way up the hill

  ALTERNATIVE BRIDGE - LOWER OCTAVE (3x):   |BRIDGE TO INTERLUDE
G|------------------------------------------------------------------------|
D|------5-7---------8--10-------------------------------------------------|
A|--5~----------8~----------------------------------------------0~--------|
E|---------------------------------------------------------------------2~-|
  Last night I had a different dream...     ...and I'm half way up the hill


  INTERLUDE:
G|------------------------------------------------------------------------|
D|-------------------------------------------------------0~---------------|
A|--2~------0~--2~------0~----------2~------------------------------------|
E|------3~----------3~------2~--0~------3~----2~--0~---------0~--2~--4~---|
  I see the crowd and the finish line...


  FINAL REFRAIN:                                               |BRIDGE OUTRO:
G|------------------------------------------------------------------------|
D|-----------------------------------------------------------------2~-----|
A|--4~--0~--2~--4~---0~--2~--4~-------4~--0~--2~--4~----0~--2~--4~--------|
E|-------------------------------2~---------------------------------------|

  FADE OUT:
G|------------------------------------------------------------------------|
D|----------------2~------------------2~----------------------------------|
A|--2~--4~----4~---------2~--4~----4~-------------------------------------|
E|------------------------------------------------------------------------|
Добавлено: 15.06.2012
Другие материалы по этой песне:
  • Аккорды и текст

Страница создана 15.06.2012
http://primanota.ru/sting/taking-the-inside-rail-chords.htm
Привет, Гость.
Предлагаем пройти революционный курс по гитаре.
Подарок от PrimaNota.Ru, забирай!