PrimaNota.ru - самый крупный в мире бесплатный архив песенных текстов, аккордов, табулатур и нот


Sting - The Soul Cages - аккорды и текст, таба, бас-таба, видео

Регистрация Запомнить меня
Войти через:  Facebook Google Twitter Vk Yandex Mail.ru

Sting - The Soul Cages - аккорды и текст, таба, бас-таба, видео

Печатать
Просмотров: 427
The Soul Cages
Sting
		   t. See http://www..net/faq/ for more information.                     #
#-----------------------------------------------------------------------------#


Author/Artist: Sting
Title: The Soul Cages
Album: The Soul Cages (1991)
Transcribed by: Patrick Mauro
Email: pmauro@engr.uvic.ca

I think this song was a little above my tabbing abilities so please, =
bear
with me, and any suggestions to make it more accurate would be GREATLY=20
appreciated.  I believe my ending is off key, and I am missing a few =
parts,
don't worry, I'll get around to finishing and fixing it up.  I just =
needed
to work on something else for a bit.

Wow, I spent so long on this one I figured I'll put it out as is.  If I
get around to figuring out the parts I don't know, the all the better.

Thanx.

I suggest listening to the song for the timing.  I did a poor job or =
trying
to get the timing across.

Just follow the song, scrolling down, it's all here in order.

INTRO x2
---------------------------------------------------
---------------------------------------------------
---------------3--3--5--5-----------10-10----------
--x--5--5--5---3--3--5--5--5--5--5--10-10-10-10----
--x--5--5--5---1--1--3--3--5--5--5---8--8-10-10----
--x--3--3--3---------------3--3--3---------8--8----

VERSE 1
-------------------------------------------------------------------------=
----------------------------------3b---------3--5--6-----6-6-6-6-6-6-6-6-=
--0-------3--5--------------3--5-------------------------5-5-5-5-5-5-5-5-=
----------------3----------------------------------------3-3-3-3-3-3-3-3-=
-------------------------------------------------------------------------=
-------------------------------------------------------------------------=

SOLO (no figured out)

VERSE 2
-------------------------------------------------------------------------=
----------------------------3b----------------------6--------6--6\3------=
--0-------3--5--------3--5--------3--5--------5--7-----5--7--------------=
----------------3-----------------------3--------------------------------=
-------------------------------------------------------------------------=
-------------------------------------------------------------------------=

VERSE 3
-||--6-------||           ||--8-------||-
-||-----6----||           ||-----8----||-
-||--------8-|| x many    ||-------10-||- x many
-||----------||   times   ||----------||-   times
-||----------||           ||----------||-
-||----------||           ||----------||-

REFRAIN=20
---------------------------------------------
---------------------------------------------
-----------3--3--5--5----------10-10---------
--5--5--5--3--3--5--5--5--5--5-10-10-10-10---
--5--5--5--1--1--3--3--5--5--5--8--8-10-10---
--3--3--3--------------3--3--3--------8--8---

---------------------------------------------
---------------------------------------------
-----------3--3--5--5-----------3--3---------
--5--5--5--3--3--5--5--5--5--5--3--3--5--5---
--5--5--5--1--1--3--3--5--5--5--1--1--5--5---
--3--3--3--------------3--3--3--------3--3---

TRANSITION 1 (not figured out)

VERSE 4
-------------------------------------------------------------
-------------------------------------------------------------
-----5--7-----------5--7---------5--7------------------------
--7--------5--7-----------5--7----------5--7----12-12--------
------------------------------------------------10-10-12-12--
------------------------------------------------------10-10--

VERSE 5
-----------------------------------------------------
-----------------------------------------------------
-----5--7---------9--9------5--7---------------------
--7--------5--7---7--7---7--------5--7--12-12-12-12--
----------------------------------------10-10-10-10--
-----------------------------------------------------

VERSE 6
---------------------------------      -----------------
--8--8--8--6--6--6---------------      ---13-13-13------
--7--7--7--3--3--5--5--7---------      ---12-12-12-12---
--5--5--5-----------------5--7--- x4   ---10-10-10-12---
---------------------------------      ------------10---
---------------------------------      -----------------

REFRAIN x4
-----------------------
-----------------------
-----------5--5--7--7--
--7--7--7--5--5--7--7--
--7--7--7--3--3--5--5--
--5--5--5--------------

VERSE 7
----------------------------------------------------------------------
----------------------------------------------------------------------
-----------5--5--7--7-----------5--5----------------------5--5--7--7--
--7--7--7--5--5--7--7--7--7--7--5--5-------------7--7--7--5--5--7--7--
--7--7--7--3--3--5--5--7--7--7--3--3--5--5--3p0--7--7--7--3--3--5--5--
--5--5--5--------------5--5--5-------------------5--5--5--------------

---------------------
--------8--8--6--6---
--------7--7--3--3---
--7--7--5--5---------
--7--7---------------
--5--5---------------


REFRAIN

-------------------------------------------------------------.....
-------------------------------------------10-10-10-10-10-10-.....
-----------5--5--7--7-----------5--5--7--7--9--9--9--9--9--9-.....
--7--7--7--5--5--7--7--7--7--7--5--5--7--7--7--7--7--7--7--7-.....
--7--7--7--3--3--5--5--7--7--7--3--3--5--5-------------------.....
--5--5--5--------------5--5--5-------------------------------.....

VERSE 8 (not figured out)

TRANSITION 2 (not figured out)

OUTRO (ad inifitum)
------------------------------------------------
------------------------------------------------
-----------------------------------9--9---------
--7--7--7--7--7--7--7--4--7--7--7--9--9--9--9---
--7--7--7--7--7--7--7--4--7--7--7--7--7--9--9---
--5--5--5--5--5--5--5--2--5--5--5--------7--7---


~~~~~~~~~~~~~~~~~~~~~~~~
PATRICK MAURO
University of Victoria - Engineering
mailto://pmauro@engr.uvic.ca
http://www.engr.uvic.ca/~pmauro/     
Добавлено: 26.09.2013
Другие материалы по этой песне:
  • Аккорды и текст

Страница создана 12.03.2012
http://primanota.ru/sting/the-soul-cages-chords.htm
Привет, Гость.
Предлагаем пройти революционный курс по гитаре.
Подарок от PrimaNota.Ru, забирай!