PrimaNota.ru - самый крупный в мире бесплатный архив песенных текстов, аккордов, табулатур и нот


Stick To Your Guns - Nobody - таба, видео

Регистрация Запомнить меня
Войти через:  Facebook Google Twitter Vk Yandex Mail.ru

Stick To Your Guns - Nobody - таба, видео

Печатать
Просмотров: 50
First tab, let me know any corrections, couldnt find any tabs for this so giving it my best shot so everyone
can have tabs for it
*Palm muting
~Ring out
Intro
D--------------------|
A--------------------|
F--------------------|
C--------------------|
G--8888888888888888--|
D--6666666666666666--|

Little Bass part thing
F---------------------------------------------------------|
C---------------------------------------------------------|
G-----------111----------111----------111------4-4-4------|
D--0-0-1-0-0----0-0-1-0-0----0-0-1-0-0----3-3-3-----5-5-5-|

Guitar Bend Over bass before verse
D------|
A--17--|
F--20--|
C------|
G------|
D------|

Verse  

D------------------------------------------------------------------|
A------------------------------------------------------------------|
F------------------------------------------------------------------|
C------------------------------------------------------------------|
G--2-2-3-2-2-888--2-2-3-2-2-888--1-1-3-1-1-888--5-5-5-11-11-11-7-7-|
D--0-0-1-0-0-666--0-0-1-0-0-666--0-0-1-0-0-666--3-3-3-9--9--9--5-5-|
pm * * * * * ***  * * * * * ***  * * * * * ***  * * * *  *  *  * *

D------------------------------------------------------------------|
A------------------------------------------------------------------|
F------------------------------------------------------------------|
C------------------------------------------------------------------|
G--2-2-3-2-2-888--2-2-3-2-2-888--1-1-3-1-1-888--5-5-5-11-11-11-7-7-|
D--0-0-1-0-0-666--0-0-1-0-0-666--0-0-1-0-0-666--3-3-3-9--9--9--5-5-|
pm * * * * * ***  * * * * * ***  * * * * * ***  

D------------------------------------------------------------------|
A------------------------------------------------------------------|
F------------------------------------------------------------------|
C------------------------------------------------------------------|
G--2-2-3-2-2-888--2-2-3-2-2-888--1-1-3-1-1-888--5-5-5-11-11-11-7-7-|
D--0-0-1-0-0-666--0-0-1-0-0-666--0-0-1-0-0-666--3-3-3-9--9--9--5-5-|

D------------------------------------------------------------------|
A------------------------------------------------------------------|
F------------------------------------------------------------------|
C------------------------------------------------------------------|
G--2-2-3-2-2-888--2-2-3-2-2-888--1-1-3-1-1-888--5-5-5-11-11-11-7-7-|
D--0-0-1-0-0-666--0-0-1-0-0-666--0-0-1-0-0-666--3-3-3-9--9--9--5-5-|

Pre-chorus
D----------------|
A----------------|
F----------------|
C----------------|
G-3~--pick //////
D-1~----slide////


Chorus
D----------------------------------------------------------------------------------
A----------------------------------------------------------------------------------
F---------------------------------5-5-5-5-5-5-5-5-5-5-5-5-5-5-5-5------------------
C-2-2-2-2-2-2-2-2-2-2-2-2-2-2-2-2-5-5-5-5-5-5-5-5-5-5-5-5-5-5-5-5-5-5-5-5-5-5-5-5-7
G-2-2-2-2-2-2-2-2-2-2-2-2-2-2-2-2-3-3-3-3-3-3-3-3-3-3-3-3-3-3-3-3-5-5-5-5-5-5-5-5-7
D-0-0-0-0-0-0-0-0-0-0-0-0-0-0-0-0---------------------------------3-3-3-3-3-3-3-3-5

D----------------------------------------------|
A----------------------------------------------|
F-----------------------------5-5-5-5-5-5-5-5--|
C-7-7-7-7-7-7-2-2-2-2-2-2-2-2-5-5-5-5-5-5-5-5--|
G-7-7-7-7-7-7-2-2-2-2-2-2-2-2-3-3-3-3-3-3-3-3--|
D-5-5-5-5-5-5-0-0-0-0-0-0-0-0------------------|

D----------------------------------------------------------------------------------
A----------------------------------------------------------------------------------
F---------------------------------5-5-5-5-5-5-5-5-5-5-5-5-5-5-5-5------------------
C-2-2-2-2-2-2-2-2-2-2-2-2-2-2-2-2-5-5-5-5-5-5-5-5-5-5-5-5-5-5-5-5-5-5-5-5-5-5-5-5-7
G-2-2-2-2-2-2-2-2-2-2-2-2-2-2-2-2-3-3-3-3-3-3-3-3-3-3-3-3-3-3-3-3-5-5-5-5-5-5-5-5-7
D-0-0-0-0-0-0-0-0-0-0-0-0-0-0-0-0---------------------------------3-3-3-3-3-3-3-3-5

D------------------------------------------------------|
A------------------------------------------------------|
F---------------------------------10-10-10-10-10-10-10-|
C-7-7-7-7-7-7-7-2-2-2-2-2-2-2-2-2----------------------|
G-7-7-7-7-7-7-7-2-2-2-2-2-2-2-2-2-8--8--8--8--8--8--8--|
D-5-5-5-5-5-5-5-0-0-0-0-0-0-0-0-0----------------------|

Bridge
D------------------------------------|
A------------------------------------|
F------------------------------------|
C-9-9~~~~---9~--5-7--3---------------|
G-7-7~~~~---7~--5-7--3--pick ///////-|
D-5-5~~~~---5~--3-5--1---slide /////-|

Verse
D------------------------------------------------------------------|
A------------------------------------------------------------------|
F------------------------------------------------------------------|
C------------------------------------------------------------------|
G--2-2-3-2-2-888--2-2-3-2-2-888--1-1-3-1-1-888--5-5-5-11-11-11-7-7-|
D--0-0-1-0-0-666--0-0-1-0-0-666--0-0-1-0-0-666--3-3-3-9--9--9--5-5-|

D------------------------------------------------------------------|
A------------------------------------------------------------------|
F------------------------------------------------------------------|
C------------------------------------------------------------------|
G--2-2-3-2-2-888--2-2-3-2-2-888--1-1-3-1-1-888--5-5-5-11-11-11-7-7-|
D--0-0-1-0-0-666--0-0-1-0-0-666--0-0-1-0-0-666--3-3-3-9--9--9--5-5-|

Pre-chorus
D----------------|
A----------------|
F----------------|
C----------------|
G-3~--pick //////
D-1~----slide////

Chorus
D----------------------------------------------------------------------------------
A----------------------------------------------------------------------------------
F---------------------------------5-5-5-5-5-5-5-5-5-5-5-5-5-5-5-5------------------
C-2-2-2-2-2-2-2-2-2-2-2-2-2-2-2-2-5-5-5-5-5-5-5-5-5-5-5-5-5-5-5-5-5-5-5-5-5-5-5-5-7
G-2-2-2-2-2-2-2-2-2-2-2-2-2-2-2-2-3-3-3-3-3-3-3-3-3-3-3-3-3-3-3-3-5-5-5-5-5-5-5-5-7
D-0-0-0-0-0-0-0-0-0-0-0-0-0-0-0-0---------------------------------3-3-3-3-3-3-3-3-5

D----------------------------------------------|
A----------------------------------------------|
F-----------------------------5-5-5-5-5-5-5-5--|
C-7-7-7-7-7-7-2-2-2-2-2-2-2-2-5-5-5-5-5-5-5-5--|
G-7-7-7-7-7-7-2-2-2-2-2-2-2-2-3-3-3-3-3-3-3-3--|
D-5-5-5-5-5-5-0-0-0-0-0-0-0-0------------------|

D----------------------------------------------------------------------------------
A----------------------------------------------------------------------------------
F---------------------------------5-5-5-5-5-5-5-5-5-5-5-5-5-5-5-5------------------
C-2-2-2-2-2-2-2-2-2-2-2-2-2-2-2-2-5-5-5-5-5-5-5-5-5-5-5-5-5-5-5-5-5-5-5-5-5-5-5-5-7
G-2-2-2-2-2-2-2-2-2-2-2-2-2-2-2-2-3-3-3-3-3-3-3-3-3-3-3-3-3-3-3-3-5-5-5-5-5-5-5-5-7
D-0-0-0-0-0-0-0-0-0-0-0-0-0-0-0-0---------------------------------3-3-3-3-3-3-3-3-5

D------------------------------------------------------|
A------------------------------------------------------|
F---------------------------------10-10-10-10-10-10-10-|
C-7-7-7-7-7-7-7-2-2-2-2-2-2-2-2-2----------------------|
G-7-7-7-7-7-7-7-2-2-2-2-2-2-2-2-2-8--8--8--8--8--8--8--|
D-5-5-5-5-5-5-5-0-0-0-0-0-0-0-0-0----------------------|

Breakdown
D-------------------------------------------------------------|
A-------------------------------------------------------------|
F-------------------------------------------------------------|
C-----------------------------------------------------5-5-5-5-|
G-2--8--3-5-4-3-2--8--3-11-5-3-2--8--3-5-4-3-2--8--3--3-3-3-3-|
D-0--6--1-3-2-1-0--6--1-9--3-1-0--6--1-3-2-1-0--6--1----------|

OOH

D----------------------------------------------------------------------------------
A----------------------------------------------------------------------------------
F----------------------------------------------------------------------------------
C----------------------------------------------------------------------------------
G-2--8--3-5-4-3-2--8--3-11-5-4-2--8--3-5-4-3-2--8--3-11-5-4-2--8--3-5-4-3-2--8--3--
D-0--6--1-3-2-1-0--6--1-9--3-2-0--6--1-3-2-1-0--6--1-9--3-2-0--6--1-3-2-1-0--6--1-- 
D--------
A--------
F--------
C--------
G-11-5-4-
D-9--3-2-

D----------------------------------------------------------------------------------
A----------------------------------------------------------------------------------
F----------------------------------------------------------------------------------
C----------------------------------------------------------------------------------
G-2--8--3-5-4-3-2--8--3-11-5-3-2-2-2-8-8-8-3-3-3-3-5-5-4-4-3-3-2-2-2-8-8-8-3-3-3-3-
D-0--6--1-3-2-1-0--6--1-9--3-1-0-0-0-6-6-6-1-1-1-1-3-3-2-2-1-1-0-0-0-6-6-6-1-1-1-1-
PM                               * *   * *   * * *   *   *   *   * *   * *   * * *    
D------------------------------
A------------------------------
F------------------------------
C------------------------------
G-11-11-5-5-4-4--3~--pick////--|
D-9--9--3-3-2-2--1~---slide//--|
PM   *    *   * 

Whilst the riff is played this time the other guitar plays until the chord at the  end of riff.....^
D-----------------------------------------------------------------|
A-----------------------------------------------------------------|
F-9-9-9-9-9-9-9-9-9-9-9-9-9-9-9-9-9-9-9-9-9-9-9-9-9-9-9-9-9-9-9-9-|
C-----------------------------------------------------------------|
G-----------------------------------------------------------------|
D-----------------------------------------------------------------|


D-------------------------------------------------------------------------|
A-------------------------------------------------------------------------|
F-------------------------------------------------------------------------|
C-9-9-9-9-12-12-12-12-9-9-9-9-12-12-12-12-5-5-5-5-9-9-9-9-5-5-5-5-9-9-9-9-|
G-7-7-7-7-10-10-10-10-7-7-7-7-10-10-10-10-3-3-3-3-7-7-7-7-3-3-3-3-7-7-7-7-|
D-------------------------------------------------------------------------|
PM* * * * *  *  *  *  * * * * *  *  *  *  * * * * * * * * * * * * * * * *

Chorus (from here though)
D-----------------------------------------------------------------|
A-----------------------------------------------------------------|
F-----------------------------------------------------------------|
C-------------------------------------------------5-5-5-5-5-5-5-5-|
G-5-5-5-5-5-5-5-5-7-7-7-7-7-7-7-7-2-2-2-2-2-2-2-2-3-3-3-3-3-3-3-3-|
D-3-3-3-3-3-3-3-3-5-5-5-5-5-5-5-5-0-0-0-0-0-0-0-0-----------------|

D----------------------------------------------------------------------------------
A----------------------------------------------------------------------------------
F---------------------------------5-5-5-5-5-5-5-5-5-5-5-5-5-5-5-5------------------
C-2-2-2-2-2-2-2-2-2-2-2-2-2-2-2-2-5-5-5-5-5-5-5-5-5-5-5-5-5-5-5-5-5-5-5-5-5-5-5-5-7
G-2-2-2-2-2-2-2-2-2-2-2-2-2-2-2-2-3-3-3-3-3-3-3-3-3-3-3-3-3-3-3-3-5-5-5-5-5-5-5-5-7
D-0-0-0-0-0-0-0-0-0-0-0-0-0-0-0-0---------------------------------3-3-3-3-3-3-3-3-5

D------------------------------------------------------|
A------------------------------------------------------|
F---------------------------------10-10-10-10-10-10-10-|
C-7-7-7-7-7-7-7-2-2-2-2-2-2-2-2-2----------------------|
G-7-7-7-7-7-7-7-2-2-2-2-2-2-2-2-2-8--8--8--8--8--8--8--|
D-5-5-5-5-5-5-5-0-0-0-0-0-0-0-0-0----------------------|

Bridge
D-------------------------------|
A-------------------------------|
F-------------------------------|
C-9-9~~~~--9~-5-7-3-------------|
G-7-7~~~~--7~-5-7-3---pick///---|
D-5-5~~~~--5~-3-5-1----slide///-|

Outro
D---------------------------------|
A---------------------------------|
F---------------------------------|
C---------------------------------|
G-8-8-8-8-8-8-8-8-8-8-8-8-8-8-8-8-|
D-6-6-6-6-6-6-6-6-6-6-6-6-6-6-6-6-|

There were a few parts a couldnt work out like the little lead riff over the chorus but let me know what you
think and if you have any improvements or anything let me know, thanks:)
Добавлено: 25.10.2015
Вам также может быть интересно:
Другие материалы по этой песне:

Страница создана 30.07.2015
http://primanota.ru/stick-to-your-guns/nobody-chords.htm
Привет, Гость.
Предлагаем пройти революционный курс по гитаре.
Подарок от PrimaNota.Ru, забирай!