PrimaNota.ru - самый крупный в мире бесплатный архив песенных текстов, аккордов, табулатур и нот


Stevie Wonder - Jammin - бас-таба, видео

Регистрация Запомнить меня
Войти через:  Facebook Google Twitter Vk Yandex Mail.ru

Stevie Wonder - Jammin - бас-таба, видео

Печатать
Просмотров: 135
Уроки эстрадного вокала в Санкт-Петербурге
        G |---------------------------------------------|
    D |------10-10------10-10------8-8------6-6---------|
        A |---------------------------------------------|
    E |-8-8---------8-8---------6-6------4-4------------|


        G|---------------------------------------5-5----3-3-|
        D|------5-5-----3-3------3-3------3-3---------------|
        A|------------------------------------3-3----1-1----|
        E|--3-3-----1-1-----1-1------1-1--------------------|


	G |-5-5--5-------5--3-3--3--------------------------------------|
	D |-----5--5-------5----3--6-6--6-6-----------------3-3--3----3-|
	A |---------6-6-3-------------6-------6-----6-5-5--5----3-3-3---|
	E |---------------------------------7---7-4--6----5--------4-4--|

	G |------------------------------------|
	D |-3-1-3-1--------3-3-----3-3---------|
	A |---------3-1-3-3---3-1-1---1--------|
	E |------------------------------------|


	G |---------------------------0-0------------------|
	D |-----------------------1-3-----3-3-1-1----------|
	A |-3-3-3---5---------3-3-----------------3-1------|
	E |----3-3-3-3-2-1-1-1-1---------------------------|


         G |-----------0---------------------0-------0-------0-------|
         D |------1-1-3-3-1-------------1-1-3-3-1-1-3-3-1-1-3-3-1----|
         A |-3-1-3-3-------3-1-3-1-3-1-3-3-------3-------3-------3-1-|
         E |--------------------3------------------------------------|


	G |-5-5--5-------5--4-4--3--------------------------------------|
	D |-----5--5-------5----3--6-6--6-6-----------------3-3--3----3-|
	A |---------6-6-3-------------6-------6-----6-5-5--5----3-3-3---|
	E |---------------------------------7---7-4--6----4--------5-5--|


	G |------------------------------------|
	D |-2-0-2-0--------2-2-----2-2---------|
	A |---------2-0-2-2---2-2-2---0--------|
	E |------------------------------------|


        G |---------------------------0-0--------------------|
    D |-----------------------1-3-----3-3-1-1----------------|
    A |-3-3-3-----5---------3-3-----------------3-1----------|
    E |----3-3---3-3-2-1-1-1-1-------------------------------|


        G |-----------0---------------------0-------0-------0-------|
        D |------1-1-3-3-1-------------1-1-3-3-1-1-3-3-1-1-3-3-1----|
        A |-3-1-3-3-------3-1-3-1-3-1-3-3-------3-------3-------3-1-|
        E |--------------------3------------------------------------|

        G |--------------------8----------8----8--------------|
    D |--------8--8-10-8-10-10-8--8-10-8-10-10-8-10-8--8------|
    A |-10-8-10-10--------------10-------------------10-------|
    E |-------------------------------------------------------|


	G |---------------------------------|
	D |------------5--------------------|
	A |-10-8-10-8-6-8-6-8-6-6-----------|
	E |--------------------8-8-6-8-6-3--|


        G |---------------------------------------------|
    D |------10-10------10-10------8-8------6-6---------|
        A |---------------------------------------------|
    E |-8-8---------8-8---------6-6------4-4------------|


        G|---------------------------------------5-5----3-3-|
        D|------5-5-----3-3------3-3------3-3---------------|
        A|------------------------------------3-3----1-1----|
        E|--3-3-----1-1-----1-1------1-1--------------------|


	G |-5-5--5-------5--3-3--3--------------------------------------|
	D |-----5--5-------5----3--6-6--6-6-----------------3-3--3----3-|
	A |---------6-6-3-------------6-------6-----6-5-5--5----3-3-3---|
	E |---------------------------------7---7-4--6----5--------4-4--|


	G |------------------------------------|
	D |-3-1-3-1--------3-3-----3-3---------|
	A |---------3-1-3-3---3-1-1---1--------|
	E |------------------------------------|


	G |---------------------------0-0------------------|
	D |-----------------------1-3-----3-3-1-1----------|
	A |-3-3-3---5---------3-3-----------------3-1------|
	E |----3-3-3-3-2-1-1-1-1---------------------------|


i just about think that that i right but then again i am not sure i pretty much just 
along with a the live preformance.
cheers
Добавлено: 05.10.2013
Другие материалы по этой песне:
  • Аккорды и текст

Страница создана 05.10.2013
http://primanota.ru/stevie-wonder/jammin-chords.htm
Привет, Гость.
Предлагаем пройти революционный курс по гитаре.
Подарок от PrimaNota.Ru, забирай!