PrimaNota.ru - самый крупный в мире бесплатный архив песенных текстов, аккордов, табулатур и нот


Stevie Wonder - Isnt She Lovely Live - аккорды и текст, видео

Регистрация Запомнить меня
Войти через:  Facebook Google Twitter Vk Yandex Mail.ru

Stevie Wonder - Isnt She Lovely Live - аккорды и текст, видео

Печатать
Просмотров: 51
Уроки эстрадного вокала в Санкт-Петербурге
Isnt She Lovely Live
Stevie Wonder
[Intro]

C#m7  F#9 A/B  E


[Verse 1]

          C#m7   F#9        A/B    E
Isn't she lovely? Isn't she wonder-ful?
          C#m7      F#9            A/B    E
Isn't she precious?  Less than one minute old.


[Chorus 1]

        A7M                       G#7#5
I never thought through love we'd be,
       C#m7             F#13
Making one as lovely as she.
              A/B               E
But isn't she lovely; made from love?

                              E
e|-------|-----------------|-----|
B|-------|-----------------|--9--|
G|-------|------------6-9--|--9--|
D|-------|-------6-9-------|--9--|
A|-------|--7-9------------|--7--|
E|--7-9--|-----------------|-----|


[Verse 2]

          C#m7    F#9        A/B     E
Isn't she pretty?  Truly the angel's best.
            C#m7  F#9           A/B    E
Boy, I'm so happy, we have been Heaven blessed.


[Chorus 2]

           A7M                G#7#5
I can't be-lieve what God has done;
            C#m7               F#13
Through us, He's given life to one.
              A/B               E
But isn't she lovely; made from love?

                              E
e|-------|-----------------|-----|
B|-------|-----------------|--9--|
G|-------|------------6-9--|--9--|
D|-------|-------6-9-------|--9--|
A|-------|--7-9------------|--7--|
E|--7-9--|-----------------|-----|


[Solo]

C#m7  F#9 A/B  E
C#m7  F#9 A/B  E
A7M    G#7#5 C#m7  F#13 A/B  E

                              E
e|-------|-----------------|-----|
B|-------|-----------------|--9--|
G|-------|------------6-9--|--9--|
D|-------|-------6-9-------|--9--|
A|-------|--7-9------------|--7--|
E|--7-9--|-----------------|-----|


[Verse 3]

          C#m7   F#9            A/B     E
Isn't she lovely? Life and love are the same.
          C#m7  F#9          A/B    E
Life is A-isha;  the meaning of her name.


[Chorus 3]

           A7M                 G#7#5
Londie, it could have not been done,
        C#m7                  F#13
Without you who conceived the one,
               A/B               E
That's so very lovely; made from love.

                              E
e|-------|-----------------|-----|
B|-------|-----------------|--9--|
G|-------|------------6-9--|--9--|
D|-------|-------6-9-------|--9--|
A|-------|--7-9------------|--7--|
E|--7-9--|-----------------|-----|


[Solo]

C#m7  F#9  A/B  E
C#m7  F#9  A/B  E
A7M    G#7#5  C#m7  F#13  A/B  E

                              E
e|-------|-----------------|-----|
B|-------|-----------------|--9--|
G|-------|------------6-9--|--9--|
D|-------|-------6-9-------|--9--|
A|-------|--7-9------------|--7--|
E|--7-9--|-----------------|-----|
Добавлено: 23.11.2017
Другие материалы по этой песне:
  • Аккорды и текст

Страница создана 23.11.2017
http://primanota.ru/stevie-wonder/isnt-she-lovely-live-chords.htm
Привет, Гость.
Предлагаем пройти революционный курс по гитаре.
Подарок от PrimaNota.Ru, забирай!