PrimaNota.ru - самый крупный в мире бесплатный архив песенных текстов, аккордов, табулатур и нот


Stevie Ray Vaughan - You'll be Mine - текст песни, таба, видео

Регистрация Запомнить меня
Войти через:  Facebook Google Twitter Vk Yandex Mail.ru

Stevie Ray Vaughan - You'll be Mine - текст песни, таба, видео

Печатать
Просмотров: 57
YOU'LL BE MINE

As recorded by Stevie Ray Vaughan & Double Trouble
(From the 1986 Album SOUL TO SOUL)

Words and Music by Willie Dixon
Arranged by Stevie Ray Vaughan

Transcribed by M.D. & Slowhand 


Gtr I (Eb Ab Db Gb Bb Eb) - 'Stevie Ray Vaughan - Electric Guitar - 1/2 step down'

 Intro
  Q=184
     E         F#m  E                             F#m
 4/4
  Gtr I (El. Gtr. / 1/2 step down)
  Q  E E +E  E Q    Q  E E E E E E   Q  E E +E  E Q
|----0-0-(0)-0-2--|-0--------------|----0-0-(0)-0-2--|
|----0-0-(0)-0-2--|-0--------------|----0-0-(0)-0-2--|
|----1-1-(1)-1-2--|-1--------------|----1-1-(1)-1-2--|
|----2-2-(2)------|-2------0-0-1-2-|----2-2-(2)------|
|-----------------|----2-2---------|-----------------|
|-----------------|----------------|-0---------------|


  E                             F#m  E                             F#m
  Q  E E E E E E   Q  E E +E  E Q    Q  E E E E E E   Q  E E +E  E Q
|-0--------------|----0-0-(0)-0-2--|-0--------------|----0-0-(0)-0-2---|
|-0--------------|----0-0-(0)-0-2--|-0--------------|----0-0-(0)-0-2---|
|-1--------------|----1-1-(1)-1-2--|-1--------------|----1-1-(1)-1-2---|
|-2------0-0-1-2-|----2-2-(2)------|-2------0-0-1-2-|----2-2-(2)-------|
|----2-2---------|-0---------------|----2-2---------|------------------|
|----------------|-0---------------|----------------|-0----------------|


                   1st & 2nd Verses
  E                              F#m  E                            F#m
  Q  E E E E Q      Q  E E +E  E Q    Q  E E E E Q    Q  E E +E  E Q
|-0--x-x-x-x-x--||--x--0-0-(0)-0-2--|-0--x-x-x-x-x--|-x--0-0-(0)-0-2---|
|-0--x-x-x-x-x--||o-x--0-0-(0)-0-2--|-0--x-x-x-x-x--|-x--0-0-(0)-0-2---|
|-1--x-x-x-x-x--||--x--1-1-(1)-1-2--|-1--x-x-x-x-x--|-x--1-1-(1)-1-2---|
|-2--x-x-x-x-x--||--x--2-2-(2)------|-2--x-x-x-x-x--|-x--2-2-(2)-------|
|----x-x-x-x-x--||o-x---------------|----x-x-x-x-x--|-x----------------|
|----x-x-x-x-x--||--x---------------|----x-x-x-x-x--|-x----------------|


  E                            F#m  E                            F#m
  Q  E E E E Q    Q  E E +E  E Q    Q  E E E E Q    Q  E E +E  E Q
|-0--x-x-x-x-x--|-x--0-0-(0)-0-2--|-0--x-x-x-x-x--|-x--0-0-(0)-0-2---|
|-0--x-x-x-x-x--|-x--0-0-(0)-0-2--|-0--x-x-x-x-x--|-x--0-0-(0)-0-2---|
|-1--x-x-x-x-x--|-x--1-1-(1)-1-2--|-1--x-x-x-x-x--|-x--1-1-(1)-1-2---|
|-2--x-x-x-x-x--|-x--2-2-(2)------|-2--x-x-x-x-x--|-x--2-2-(2)-------|
|----x-x-x-x-x--|-x---------------|----x-x-x-x-x--|-x----------------|
|----x-x-x-x-x--|-x---------------|----x-x-x-x-x--|-x----------------|


  E                  A7
  Q  E E E E Q    Q  E E +E  E Q    Q  E E E E Q    E E E E +E  E E  E
|-0--x-x-x-x-x--|-x--3-3-(3)-3-3--|-3--x-x-x-x-x--|-x-x-x-3-(3)-3-0-(3)--|
|-0--x-x-x-x-x--|-x--2-2-(2)-2-2--|-2--x-x-x-x-x--|-x-x-x-2-(2)-2-0--2---|
|-1--x-x-x-x-x--|-x--2-2-(2)-2-2--|-2--x-x-x-x-x--|-x-x-x-2-(2)-2-0--2---|
|-2--x-x-x-x-x--|-x--2------------|-2--x-x-x-x-x--|-x-x-x-2-(2)-2--------|
|----x-x-x-x-x--|-x---------------|----x-x-x-x-x--|-x-x-x----------------|
|----x-x-x-x-x--|-x---------------|----x-x-x-x-x--|-x-x-x----------------|


                                                     1.
                      E         F#m  E                              F#m
  Q  E E E E E E   Q  E E +E  E Q    Q  E E E E E E   E E E E +E  E Q
|-3--x-x-x-x-x-x-|-x--0-0-(0)-0-2--|-0--x-x-x-x-x-x-|-x-x-0-0-(0)-0-2---|
|-2--x-x-x-x-x-x-|-x--0-0-(0)-0-2--|-0--x-x-x-x-x-x-|-x-x-0-0-(0)-0-2---|
|-2--x-x-x-x-x-x-|-x--1-1-(1)-1-2--|-1--x-x-x-x-x-x-|-x-x-1-1-(1)-1-2---|
|-2--x-x-x-x-x-x-|-x--2-2-(2)------|-2--x-x-x-x-x-x-|-x-x-2-2-(2)-------|
|----x-x-x-x-x-x-|-x---------------|----x-x-x-x-x-x-|-x-x---------------|
|----x-x-x-x-x-x-|-x---------------|----x-x-x-x-x-x-|-x-x---------------|


                                                           Bridge
                    2.
                                                         $
  E                                F#m  E                   A7
  Q  E E E E E E     E E E E +E  E Q    Q  E E +E  E E E    Q  E E E E E E
|-0--x-x-x-x-x-x--||-x-x-0-0-(0)-0-2--|-0--0-0-(0)-0-x---||----x-x-x-x-x-x--|
|-0--x-x-x-x-x-x-o||-x-x-0-0-(0)-0-2--|-0--0-0-(0)-0-x---||----x-x-x-x-x-x--|
|-1--x-x-x-x-x-x--||-x-x-1-1-(1)-1-2--|-1--1-1-(1)-1-x---||-x--x-x-x-x-x-x--|
|-2--x-x-x-x-x-x--||-x-x-2-2-(2)------|-2--2-2-(2)-2-x-0-||-x--x-x-x-x-x-x--|
|----x-x-x-x-x-x-o||-x-x--------------|----------------0-||-x---------------|
|----x-x-x-x-x-x--||-x-x--------------|------------------||-----------------|


  E E Q  E E Q    E E a Q  Q  Q    Q  Q  Q  Q    E E E E Q  E E
|-x-x-x--x-x-x--|-x-x------------|-------------|-x-x-x-x-x--x-x-|
|-x-x-x--x-x-x--|-x-x---5--4--5--|-4--5--4--5--|-x-x-x-x-x--x-x-|
|-x-x-x--x-x-x--|-x-x---6--5--6--|-5--6--5--6--|-x-x-x-x-x--x-x-|
|-x-x-x--x-x-x--|-x-x-x----------|-------------|-x-x-x-x-x--x-x-|
|---------------|----------------|-------------|----------------|
|---------------|----------------|-------------|----------------|


                  |3|
  E E Q  E E Q    Q E a  Q  Q  Q    Q  Q  Q  Q    E E E E  Q   E E
|-x-x-x--x-x-x--|-x---------------|-------------|-x-x-x-x------x-x-|
|-x-x-x--x-x-x--|-x------5--5--5--|-4--5--4--5--|-x-x-x-x------x-x-|
|-x-x-x--x-x-x--|-x------6--5--6--|-5--6--5--6--|-x-x-x-x------x-x-|
|-x-x-x--x-x-x--|-x-7-7\----------|-------------|-x-x-x-x-<7>--x-x-|
|---------------|-----------------|-------------|------------------|
|---------------|-----------------|-------------|------------------|


  E E E E E E E E   E E Q  Q  Q
|-x-x-x-x-x-x-x-x-|-x------------|
|-x-x-x-x-x-x-x-x-|-x-0-5--4--5--|
|-x-x-x-x-x-x-x-x-|-x-0-6--5--6--|
|-x-x-x-x-x-x-x-x-|-x-0----------|
|-----------------|--------------|
|-----------------|--------------|


                    B7
  Q  Q  Q  E   E    Q  E E Q  E E   Q  E E Q  Q
|-----------------|-----------0-0-|---------------|
|-4--5--4--5\-(0)-|--------3--3-3-|--------3--3---|
|-5--6--5--6\-(0)-|------2-2--2---|------2-2--2---|
|-----------------|---------------|---------------|
|-----------------|-2--2----------|-2--2----------|
|-----------------|---------------|---------------|


                                3rd Verse
                                 E            F#m  E
  Q  Q  Q  Q    E E Q  Q  e E    Q  E E +E  E Q    Q  E E E E Q
|-------------|---------------||----0-0-(0)-0-2--|-0--x-x-x-x-x---|
|----3--3--3--|---x-3--3------||----0-0-(0)-0-2--|-0--x-x-x-x-x---|
|----2--2--2--|---x-2--2--x---||----1-1-(1)-1-2--|-1--x-x-x-x-x---|
|-------------|-----------x---||----2-2-(2)------|-2--x-x-x-x-x---|
|-2-----------|-2---------x---||-----------------|----x-x-x-x-x---|
|-------------|-------------0-||-0---------------|----x-x-x-x-x---|


                F#m  E                              F#m  E
  E E E E +E  E Q    Q  E E E E E E   E E E E +E  E Q    Q  E E E E E E
|-x-x-0-0-(0)-0-2--|-0--x-x-x-x-x-x-|-x-x-0-0-(0)-0-2--|-0--x-x-x-x-x-x--|
|-x-x-0-0-(0)-0-2--|-0--x-x-x-x-x-x-|-x-x-0-0-(0)-0-2--|-0--x-x-x-x-x-x--|
|-x-x-1-1-(1)-1-2--|-1--x-x-x-x-x-x-|-x-x-1-1-(1)-1-2--|-1--x-x-x-x-x-x--|
|-x-x-2-2-(2)------|-2--x-x-x-x-x-x-|-x-x-2-2-(2)------|-2--x-x-x-x-x-x--|
|-x-x--------------|----x-x-x-x-x-x-|-x-x--------------|----x-x-x-x-x-x--|
|-x-x--------------|----x-x-x-x-x-x-|-x-x--------------|----x-x-x-x-x-x--|


               F#m  E        A7
  Q  E E +E  E Q    Q  E E E E E E       Q  Q  +E  E Q    E E E E E E E E
|----0-0-(0)-0-2--|-0--x-x-------------|----3--(3)-3-3--|-3---x-x-x-x-x-x--|
|----0-0-(0)-0-2--|-0--x-x-------------|----2--(2)-2-2--|-2---x-x-x-x-x-x--|
|----1-1-(1)-1-2--|-1--x-x---2-2-------|----2--(2)-2-2--|-2---x-x-x-x-x-x--|
|----2-2-(2)------|-2--x-x-x-2-2-x-----|-2--2--(2)-2-2--|-2---x-x-x-x-x-x--|
|-----------------|----x-x-x-0-0-x-----|-0--------------|-----x-x-x-x-x-x--|
|-0---------------|----x-x-3-----3b3.5-|----------------|-----x-x-x-x-x-x--|


                                         E         F#m  E
  E E E E +E  E Q    Q  E E E E E E   Q  E E +E  E Q    Q  E E E E E E
|-x---3-3-(3)-3-3--|-3--x-x-x-x-x-x-|----0-0-(0)-0-2--|-0--x-x-x-x-x-x--|
|-x-0-2-2-(2)-2-2--|-2--x-x-x-x-x-x-|----0-0-(0)-0-2--|-0--x-x-x-x-x-x--|
|-x-0-2-2-(2)-2-2--|-2--x-x-x-x-x-x-|----1-1-(1)-1-2--|-1--x-x-x-x-x-x--|
|-x-0-2-2-(2)-2-2--|-2--x-x-x-x-x-x-|----2-2-(2)-2----|-2--x-x-x-x-x-x--|
|-x----------------|----x-x-x-x-x-x-|-----------------|----x-x-x-x-x-x--|
|-x----------------|----x-x-x-x-x-x-|-x---------------|----x-x-x-x-x-x--|


                                                To Coda
                F#m  E                              F#m  E
  E E E E +E  E Q    Q  E E E E E E   E E E E +E  E Q    Q  E E E E  E  E
|-----0-0-(0)-0-2--|-0--x-x-x-x-x-x-|-----0-0-(0)-0-2--|-0--0-0-0-0--------||
|-----0-0-(0)-0-2--|-0--x-x-x-x-x-x-|-----0-0-(0)-0-2--|-0--0-0-0-0-12-12--||
|-----1-1-(1)-1-2--|-1--x-x-x-x-x-x-|-----1-1-(1)-1-2--|-1--1-1-1-0-12-12--||
|-----2-2-(2)------|-2--x-x-x-x-x-x-|-----2-2-(2)-2----|-2--2-2-2-0--------||
|-x-x--------------|----x-x-x-x-x-x-|-x-x-2------------|-------------------||
|-x-x--------------|----x-x-x-x-x-x-|-x-x--------------|-------------------||


 Guitar Solo
  N.C.
   E      +E    E  E  E  S  +S      E  E
|-14b15==(14)r-14----14-12-(12)----------|
|-14b15==(14)r-14-12-14-12-(12)b13-------|
|-14b15==(14)r-14-12-14-12-(12)b13-------|
|----------------------------------14-14-|
|----------------------------------------|
|----------------------------------------|


   E  E  E      +E    E  E  E  E    S S  E       E    E  E  E       E    E
|-12-14-14b15==(14)r-------------|--------------14---12------------14---12-|
|-12-14-14b15==(14)r-14-12-------|------14b15==(14)r-12----14b15==(14)r-12-|
|-12-14-14b15==(14)r-14-12----12-|------14b15==(14)r-12----14b15==(14)r-12-|
|--------------------------14-12-|-----------------------------------------|
|--------------------------------|-----------------------------------------|
|--------------------------------|-10-x-----------------12-----------------|


   S  S  E      +E     E   E   E  E  E
|--------------------(12)-14-\12-------|
|-------14b15==(14)r--12--14--12-------|
|-------14b15==(14)r--12--14--12-----0-|
|--------------------------------14\---|
|--------------------------------------|
|-12-12--------------------------------|


     E           F#m  E   N.C.
  Q   E  E +E  E Q    E E   E  E  E  E  E  E
|-----0--0-(0)-0-2--|-0-0--------------------|
|-----0--0-(0)-0-2--|-0-0--------------------|
|-----1--1-(1)-1-2--|-1----------------------|
|-----2--2-(2)---2--|-2----------12-12-13-14-|
|----(2)------------|-----/14-14-------------|
|-0-----------------|------------------------|


   E  E  E  E  +E   E  E  E    E  E     +E   E  E   E   E  E
|-------12-12-(12)-12-14-12-|-12------------12-14-(12)----12-|
|----12-12-12-(12)-12-14-12-|-12-14b15-(14)-12-14--12-----12-|
|----13-13-13-(13)-13-14-13-|-12-14b15-(14)-12-14--12-----12-|
|-14-14---------------------|--------------------------14----|
|--x--x---------------------|--------------------------------|
|-12-12---------------------|--------------------------------|


   E      +E     E    E   E     +E    E   E
|-14b15==(14)r-(14)p(12)-14b15-(14)-(14)-12-|
|-14b15==(14)r--14---12--14b15-(14)--14--12-|
|-14b15==(14)r--14---12--14b15-(14)--14--12-|
|-------------------------------------------|
|-------------------------------------------|
|-------------------------------------------|


   E      +E     E    E   E  E     S   S   S S
|-14b15==(14)r-(14)p(12)-----------------------|
|-14b15==(14)r--14---12--14-12b13--------------|
|-14b15==(14)r--14---12--14-12b13--------------|
|---------------------------------14p(12)-12p0-|
|----------------------------------------------|
|----------------------------------------------|


  E  E      +E   E  a   E   E  E  E    E  E  E  E  a  E  E  E  E
|---------------15-----15--15-------|-15-15----------------------|
|-----------------------------------|----------12----------------|
|---14b16==(14)----14r(14)-12----12-|-14-12----12-------------12-|
|-----------------------------14----|-------14----------------12-|
|-----------------------------------|-------------11-12-12-11----|
|-----------------------------------|----------------------------|


     E         F#m  E   N.C.
  Q  E E +E  E Q    E E   E  E  E  E  E  E    E  E  E  E  +E   E  E   E
|----0-0-(0)-0-2--|-0-0--------------------|-------12-12-(12)-12-14-(12)-|
|----0-0-(0)-0-2--|-0-0--------------------|-------12-12-(12)-12-14--12--|
|----1-1-(1)-1-2--|-1--------x-12----------|-------13-13-(13)-13-14--13--|
|----2-2-(2)---2--|-2-------14-12-12-13-14-|----14-14--------------------|
|----2------------|-----/15----------------|-----------------------------|
|-0---------------|------------------------|-12--------------------------|


                           B7
   E  E  E  E  E  E  E E   E E Q  E E E E   E E Q  E Q  E
|--0--0-14-12-14-12------|----------------|---------------|
|-12-12-14-12-14-12----0-|-----3----3-----|-3---3----3----|
|-13-13-14-12-14-12----0-|-----2----2-----|-2---2----2----|
|------------------------|----------------|---------------|
|-------------------/5---|-2-2----2---2-2-|---2----2----0-|
|------------------------|----------------|---------------|


    E  E  E  E  E  E  E  E
|--------------------------|
|-----15-15----15-15----15-|
|-----14-14----14-14----14-|
|-/14-14-14----------------|
|-/14-------14-------14----|
|--------------------------|


   E  S  S  E  E  E  E  E  E   E E  E  S  S  E  E  E  E
|----------------------------|--------------------------|
|----------15----15-15-15-15-|-----15-------15-15----15-|
|----------14----14-14-14-14-|-----14-------14-14----14-|
|----------------------------|------x--------x--x-------|
|-14-14-14----14-------------|-----14-14-14-14-14-14----|
|----------------------------|-0-0-----------------0----|


   +E   E  E E  E  E  E E   E  E  E  E  +E   E E. S    E  E    E  E E E E E
|-------------------------|---19-19-19-(19)\-0------|-------------0---------|
|-(15)----15---15-15\-----|---19-19-19-(19)\-0----0-|-(2)-----(2)-0-2p0-----|
|-(14)----14---14-14------|---19-19-19-(19)\---2--0-|--2--2b3--2--0-2p0---0-|
|-------------------------|-------------------------|-------------------2p0-|
|------14-----------------|-------------------------|-----------------------|
|-------0----0--------0-0-|-0-----------------------|-----------------------|


     E         F#m  E                             F#m  E
  Q  E E +E  E Q    Q  E E E E E E   Q  E E +E  E Q    E E E E E E E E
|----0-0-(0)-0-2--|-0--------------|----0-0-(0)-0-2--|-0-0--------------|
|----0-0-(0)-0-2--|-0--------------|----0-0-(0)-0-2--|-0-0--------------|
|----1-1-(1)-1-2--|-1--------------|----1-1-(1)-1-2--|-1----------------|
|----2-2-(2)------|-2------0-0-1-2-|----2-2-(2)------|-2-------0-0-1-2--|
|-----------------|----2-2---------|-----------------|-----2-2----------|
|-0---------------|----------------|-0---------------|------------------|


                                                        D.S. al Coda
               F#m  E                   E         F#m  E
  Q  E E +E  E Q    Q  E E E E E E   Q  E E +E  E Q    Q  E E E E E E
|----0-0-(0)-0-2--|-0--------------|----0-0-(0)-0-2--|-0----0-----0-0--||
|----0-0-(0)-0-2--|-0--------------|----0-0-(0)-0-2--|-0--0-0---0-0-0--||
|----1-1-(1)-1-2--|-1--------------|----1-1-(1)-1-2--|-1--1-1-1---1-1--||
|----2-2-(2)------|-2------0-0-1-2-|----2-2-(2)------|-2--2-2-------2--||
|-----------------|----2-2---------|-----------------|----2------------||
|-0---------------|----------------|-0---------------|-----------------||


                    Outro-Solo
  &
                     A7
  Q  E E E E E. S     Q  Q  E E  E  E   E E E E E  E   E    E
|-0---------------||-----3----3-(5)---|-5---5---3--3--(0)-/12-|
|-0---------------||-----2----2-(2)---|-2---2---2--2--(0)-/12-|
|-1---------------||-^2--2--2-2-----2-|---2---2-2-(2)-----/12-|
|-2---------------||-^2--2--2-------2-|---2---2---------------|
|-----------------||-^0-----0---------|-----------------------|
|----0-0-3-3-4--0-||------------------|-----------------------|


   +E   E  E  E     +E   E  E  E
|-(12)-12-14-14b15r(14)--x-------|
|-(12)-12-14-14b15r(14)-12----12-|
|-(12)----14-14b15r(14)-12----12-|
|--------------------------14-12-|
|--------------------------------|
|--------------------------------|


                                                   E           F#m
   S      +S   E  E  E  a   E   E       E  E   E E  E  E +E  E Q
|-------------15----15-----15--------------0-|------0--0-(0)-0-2--|
|------------------------------------------0-|------0--0-(0)-0-2--|
|-14b16==(14)----14----14r(14)-12b12.5-------|------1--1-(1)-1-2--|
|--------------------------------------14\---|------2--2-(2)-2-2--|
|--------------------------------------------|-----(2)-------2----|
|--------------------------------------------|-0-0----------------|


  E
  E E   E  E  E  E  E  E    E  E  E  E  +E   E  E  E
|-0-0--------------------|-------12-12-(12)-12-14----|
|-0-0--------------------|----12-12-12-(12)-12-14-12-|
|-1-0--------------------|----13-13-13-(13)-13-14-13-|
|-2-0--------12-12-13-14-|----14-14---------------14-|
|-----/14-14-------------|---------------------------|
|------------------------|-12------------------------|


   E  E  E  S     +S   +E   E  E  E
|-12-12-----------------------------|
|-12-12-12-14b15r(14)-(14)-12-------|
|-13-13-12-14b15r(14)-(14)-12----12-|
|----14-14--------------------14-12-|
|-----------------------------------|
|-----------------------------------|


   E     +E   E   E   E     +E   E   E
|---------------(12)-14b15-(14)-14-(12)-|
|-14b15-(14)-14-(12)-14b15-(14)-14--12--|
|-14b15-(14)-14--12--14b15-(14)-14--12--|
|---------------------------------------|
|---------------------------------------|
|---------------------------------------|


  E  S     +S   +E   E  E  e  E  E   E  S     +S   +E   E  E  E  E  E
|----------------------14-12-------|----------------------------------|
|---14b15r(14)-(14)-12-14-12-------|---14b15r(14)-(14)-12-14-12-12-12-|
|---14b15r(14)-(14)-12-14-12-----x-|---14b15r(14)-(14)-12-14-12--x-12-|
|----------------------------14-12-|-0--------------------------14----|
|----------------------------------|-0--------------------------------|
|----------------------------------|----------------------------------|


   S     +S   E  S     +S   E  a   E   E  E  S   S
|------------15-----------------------------(0)-----|
|-------------------------------------------(0)-----|
|-14b16-(14)----14b16r(14)-14-14-(14)-12--------(0)-|
|----------------------------------------14---------|
|---------------------------------------------------|
|---------------------------------------------------|


        E         F#m  E
  E  E  E E +E  E Q    E E E E E E E E
|-------0-0-(0)-0-2--|-0-0-------------|
|-------0-0-(0)-0-2--|-0-0-------------|
|---(1)-1-1-(1)-1-2--|-1---------------|
|---(2)-2-2-(2)-2-2--|-2-------0-0-1-2-|
|---(2)--------------|-----2-2---------|
|-0------------------|-----------------|


     E         F#m  E                    B7
  Q  E E +E  E Q    Q  E E +E  E E  E    E E Q  E E E E
|----0-0-(0)-0-2--|-0--0-0-(0)-0-0--0--|----------------|
|----0-0-(0)-0-2--|-0--0-0-(0)-0-0--0--|-----3----3-----|
|----1-1-(1)-1-2--|-1--1-1-(1)-1-1--0--|-----2----2-----|
|----2-2-(2)---2--|-2--2-2-(2)-2-2-(0)-|----------------|
|----2------------|--------------------|-2-2----2---2-2-|
|-0---------------|--------------------|----------------|


                   |3|
  E E Q  E E E E   E Q +E  E +E  E E E   E E Q  S S E E E
|----------------|---------------------|------------------|
|-3---3----3-----|-3-------3-(3)-3-----|-3---3------3-----|
|-2---2----2-----|-2-------2-(2)-2-----|-2---2------2-----|
|----------------|---------------------|------------------|
|---2----2---2-2-|---2-(2)---------2-2-|---2----2-2---2-2-|
|----------------|---------------------|------------------|


  E Q  E E E E E   +E  E E E E E E E   E E E E E E E E   +E  E E E E E E E
|----------------|-------------------|-----------------|--------------------|
|---3----3-3---3-|-(3)-3-3---3-3---3-|---3-3---3-3---3-|-(3)---3---3-3-3-3--|
|---2----2-2---2-|-(2)-2-2---2-2---2-|---2-2---2-2---2-|-(2)---2---2-2-2-2--|
|----------------|-------------------|-----------------|-------------2-2-2--|
|-2----2-----2---|---------2-----2---|-2-----2-----2---|-----2---2----------|
|----------------|-------------------|-----------------|--------------------|


  E            F#m   E
  Q  E E +E  E Q     Q  E E E E E E
|----0-0-(0)-0-2\--|-0--------------|
|----0-0-(0)-0-2---|-0--------------|
|----1-1-(1)-1-2---|-1--------------|
|----2-2-(2)---2---|-2------0-0-1-2-|
|------------------|----2-2---------|
|-0----------------|----------------|


                      F#m     E
   E  E  E  E  +E   E  E  E    E E Q  H
|----12-12-12-(12)-12-14----|-12-----------*|
|----12-12-12-(12)-12-14----|-12-----------*|
|----12-13-13-(13)-13-14----|-13-----------*|
|-14---------------------14-|--------------*|
|--x------------------------|--------------*|
|-12------------------------|--------------*|


Duration Legend
---------------
W - whole; H - half; Q - quarter; E - 8th; S - 16th; T - 32nd; X - 64th; a - acciaccatura
+ - note tied to previous; . - note dotted; .. - note double dotted
Uncapitalized letters represent notes that are staccato (1/2 duration)
Irregular groupings are notated above the duration line
Duration letters will always appear directly above the note/fret number it represents the
duration for.  Duration letters with no fret number below them represent rests.  Multi-
bar rests are notated in the form Wxn, where n is the number of bars to rest for.  Low
melody durations appear below the staff

Tablature Legend
----------------
 h   - hammer-on
 p   - pull-off
 b   - bend
 pb  - pre-bend
 r   - bend release (if no number after the r, then release immediately)
 /\  - slide into or out of (from/to "nowhere")
 s   - legato slide
 S   - shift slide
  - natural harmonic
[n]  - artificial harmonic
n(n) - tapped harmonic
 ~   - vibrato
 tr  - trill
 T   - tap
 TP  - trem. picking
 PM  - palm muting
\n/  - tremolo bar dip; n = amount to dip
 \n  - tremolo bar down
 n/  - tremolo bar up
/n\  - tremolo bar inverted dip
 =   - hold bend; also acts as connecting device for hammers/pulls
 <>  - volume swell (louder/softer)
 x   - on rhythm slash represents muted slash
 o   - on rhythm slash represents single note slash

Misc Legend
-----------
 |  - bar
||  - double bar
||o - repeat start
o|| - repeat end
*|  - double bar (ending)
 :  - bar (freetime)
 $  - Segno
 &  - Coda
Tempo markers -  = BPM(8/16=s8/s16), where s8 = swing 8ths, s16 = swing 16th
Добавлено: 29.05.2016
Другие материалы по этой песне:

Страница создана 07.07.2012
http://primanota.ru/stevie-ray-vaughan/youll-be-mine-chords.htm
Привет, Гость.
Предлагаем пройти революционный курс по гитаре.
Подарок от PrimaNota.Ru, забирай!