PrimaNota.ru - самый крупный в мире бесплатный архив песенных текстов, аккордов, табулатур и нот


Stevie Ray Vaughan - So Excited Live - таба, видео

Регистрация Запомнить меня
Войти через:  Facebook Google Twitter Vk Yandex Mail.ru

Stevie Ray Vaughan - So Excited Live - таба, видео

Печатать
Просмотров: 101
O EXCITED (Live from El Macombo Video)
Stevie Ray Vaughan
Tabbed by Ben Reece monkeywheet@yahoo.com

If you've heard much srv you KNOW that this isn't exactly how it
is to be played.  It is chalked full of X's and open strings.  
For example, the first beat on the first 4 measures includes
a grace-rake across the strings into that first low A...you dig.

I'm not going to do the whole solo here cause I'm at work so I didn't
bring my guitar, but I remember some of it.  Have fun and if you
have never seen the above mentioned video, DO IT!!!

A blues
4/4 time
1 2 3 4 = quarter note
2 notes per number = 8th note
   (the 8th notes are played with a very heavy shuffle 
    i.e. long-short long-short)
3 notes per number = 8th note triplet
4 notes per number = 16th notes
more than 4 notes per number = really goddamn fast notes
   such as a triplet + 1 making a 16th note triplet and an 8th note...

8b10 = bend from 8th fret to sound of 10th fret
4/7  = pick note on 4th fret and slide to 7th fret
~~~~ = shake it baby
^    = small bend

 A
 1   2   3    4    1   2   3    4    1   2   3    4    1   2   3    4   
|-----------------|-----------------|-----------------|-----------------|
|-----------------|-----------------|-----------------|-----------------|
|-----------------|-----------------|-----------------|-----------------|
|----7-7-5-7-5----|----7-7-5-7-5----|----7-7-5-7-5----|----7-7-5-7-5----|
|-------------7-7-|-------------7-7-|-------------7-7-|-------------7-4/|
|5-5--------------|5-5--------------|5-5--------------|5-5--------------|

 D                                   A
 1   2   3    4    1   2   3    4    1   2   3    4    1   2   3    4   
|-----------------|-----------------|-----------------|-----------------|
|----7-7-5-7-5----|----7-7-5-7-5----|-----------------|-----------------|
|----7-7-5-7-5----|----7-7-5-7-5----|-----------------|-----------------|
|-------------7-7-|-------------7-7-|----7-7-5-7-5----|----7-7-5-7-5----|
|5-5--------------|5-5--------------|-------------7-7-|-------------7-6/|
|-----------------|-----------------|5-5--------------|5-5--------------|


 E                 D                 A
 1   2   3    4    1   2   3    4    1   2   3    4    1   2   3    4   
|-----------------|-----------------|-----------------|-----------0-----5|
|----9-9-7-9-7----|----7-7-5-7-5----|-----------------|-----------0----5-|
|----9-9-7-9-7----|----7-7-5-7-5----|-----------------|-----------0-7b9--|
|-------------9-9-|-------------7-7-|----7-7-5-7-5----|----7-7-5--0------|
|7-7--------------|5-5--------------|-------------7-7-|------------------|
|-----------------|-----------------|5-5--------------|5-5---------------|



SOLO SOLO SOLO SOLO

  quarter note
     triplet
A{------------}
 1       2      3   4 1 2    3    4    1  2   3     4    1  2   3  4
---------------------|-5----5---------|---------------17\\\-------5----5|
8b10-8b10-8b10-8b10~~|-5---5-8b10~~~5-|---------------17\\\-------5---5-|
---------------------|--7b9----------7|5~-------------17\\\--------7b9--|
---------------------|----------------|---7-7-5-7-5-----|---7-7-5-------|
---------------------|----------------|-------------7---|---------------|
---------------------|----------------|-----------------|---------------|


  quarter note
     triplet
D {------------}                       A
 1       2      3   4 1 2    3    4    1  2   3     4    1  2   3  4
---------------------|-5----5---------|---------------17\\\-------5----5|
8b10-8b10-8b10-8b10~~|-5---5-8b10~~~5-|---------------17\\\-------5---5-|
---------------------|--7b9----------7|5~-------------17\\\--------7b9--|
---------------------|----------------|---7-7-5-7-5-----|---7-7-5-------|
---------------------|----------------|-------------7---|---------------|
---------------------|----------------|-----------------|---------------|


E
 1     2      3   4   1     2   3    4     1   2  3   4   1  2   3   4
|--5-7-5h6p5--------5|----5-8-5-----5-----|---------------|-----------|
|8^---------8-5~~~~-5|---5-----5---5------|---------------|-----------|
|--------------------|7b9-------7b9--7b9-7|5~~~-----------|----------|
|--------------------|--------------------|---------------|---------|
|--------------------|--------------------|--------------|-----------|
|--------------------|--------------------|---------------|------------|

Can't quite remember the exact end of that first verse...

Later, just before the quiet part there's a cool verse of chords...
       
 A
 1   2   3   4    1   2   3   4    1   2   3   4    1   2   3   4
|12----12\-------|12----12\-------|12----12\-------|12----12---8--9-|
|12----12\-------|12----12\-------|12----12\-------|12----12---8--9-|
|12----12\-------|12----12\-------|12----12\-------|12----12---7--8-|
|11----11\-------|11----11\-------|11----11\-------|11----11---8--9-|
|----------------|----------------|----------------|----------------|
|----------------|----------------|----------------|----------------|

 D
 1   2   3   4    1   2   3   4    1   2   3   4    1   2   3   4
|10----10--------|10----10--10-11--|12---12--------|12----12--10--11|
|10----10--------|10----10--10-11--|12---12--------|12----12--10--11|
|9-----9---------|9-----9---10-11--|12---12--------|12----12--9---10|
|10----10--------|10----10--9--10--|11---11--------|11----11--10--11|
|----------------|-----------------|---------------|----------------|
|----------------|-----------------|---------------|----------------|
 E                D                A
 1   2   3   4    1   2   3   4    1   2   3  4   1  2     3   4
|12----12---8--9-|10----10--10--11|12----12------|---------------|
|12----12---8--9-|10----10--10--11|12----12------|---------------|
|11----11---7--8-|9-----9---10--11|12----12------|---------------|
|12----12---8--9-|10----10--9---10|11----11------|------{trill---}
|----------------|----------------|--------------|---5h7-5h7-----|
|----------------|----------------|--------------|---------------|



Quiet part...
  A
  1     2   3   4    1   2   3   4    1    2   3   4    1   2   3      4
--------------------|-------------x--|-----------------|-----------------|
--------------------|-------------x--|-----------------|-----------------|
x---7b8-7-5-7-5-----|--------5~----x-|-7h8-7-5-7-5-----|----5h7~7p5------|
x----------------7-5|7--5-7-5-------x|--------------7-5|7-7-------7p5----|
-x------------------|--------------- x-----------------|------------7p5--|
--5-----------------|----------------|5----------------|-----------------|

(hit 10th fret on upbeat before 1)
   D
 . 1   2      3        4 .   1   2      3        4 .   
10|----------------------10-|---------------------17-|
10|----------10----------10-|---------10----------17-|
10|-----10-12--12p10-----10-|----10-12--12p10-----17-|
--|--12----------- 12p10----|-12------------12p10----|
--|-------------------------|------------------------|
--|-------------------------|------------------------|

 A
 1   2        3        4     1        2      3    4
|-17-17-17-17-17----17-17-17|17-17--------------17---- 17|
|---------------------------|-------------------17----17-|
|----17-19-17-17h19-19-17---|17-19b20r19p17-------19b21--|
|-19----------------------19|--------------19~~----------|
|---------------------------|----------------------------|
|---------------------------|----------------------------|

 E                              D
 1        2          3     4    1   2    3   4   
|---17-19-17h18p17-----17------|----5---5--------|
|20^--------------20-17--20----|------8--8--5----|
|--------------------------\7b9~~~~-----------7-7|
|------------------------------|-----------------|
|------------------------------|-----------------|
|------------------------------|-----------------|

 A
 1   2   3   4    1     2    3   4 
|----------------|-------------------|
|----------------|-------------------|
|5~------------5-|-------------------|
|------7-7~------|7p5----------------|
|----------------|---7p5-------------|
|----------------|-------------------|

The next part is still quiet and would not be easily tabbed..
buy the damn video!!  peace,    ben   monkeywheet@yahoo.com

 

__________________________________
     
Добавлено: 22.11.2013
Другие материалы по этой песне:
  • Аккорды и текст

Страница создана 22.09.2013
http://primanota.ru/stevie-ray-vaughan/so-excited-live-chords.htm
Привет, Гость.
Предлагаем пройти революционный курс по гитаре.
Подарок от PrimaNota.Ru, забирай!