PrimaNota.ru - самый крупный в мире бесплатный архив песенных текстов, аккордов, табулатур и нот


Stephen Lynch - The Craig Machine - таба, видео

Регистрация Запомнить меня
Войти через:  Facebook Google Twitter Vk Yandex Mail.ru

Stephen Lynch - The Craig Machine - таба, видео

Печатать
Просмотров: 98
   +--------------------------PLEASE NOTE--------------------------+
   + This file is Jordan Lapping's own work and represents his     +
   + interpretation of the song. You may only use this file for    +
   + private study, scholarship, or research. The contents may not +
   + be duplicated for use with other websites without written     +
   + permission. Thank you for understanding. Enjoy.               +
   +---------------------------------------------------------------+


     ARTIST:   Stephen Lynch 
     ALBUM:    The Craig Machine (2005)
     GERNE:    Comedy
     SONGS:    
               1. Vanilla Ice Cream
               2. Ugly Baby
               3. Halloween
               4. Love Song
               5. Craig
               6. Beelz
               7. Albino
               8. Mixer At Delta Chi
               9. Little Tiny Moustache
              10. Pierre
              11. Whittlin' Man
              12. Classic Rock Song
              13. Not Home
              14. Voices in my Head
              15. [BONUS] D&D


××××××××××××××××××××××××××××××××××××××××××××××××××××××××××××××××××××××××××××××××
                 H o w   T o   R e a d   T h i s   G u i d e
××××××××××××××××××××××××××××××××××××××××××××××××××××××××××××××××××××××××××××××××


   When reading online chords, certain questions may often spring to mind, such
as: "How many strums do I do here?" or "What is the pattern there, when should I
switch chord?" Similarly, with online tabs they aren't often very accurate; or
don't show clearly how this is synchronized to the lyrics of the track. This can
be a pain for those learning, and I myself have suffered from it before.

To eliminate this problem, I've tried my very best to show both chords and tabs
for each song. Take, for example, this randomly put together riff:

×××××××××××××××××××××××××××××××××××××××××××××××××××××××××
×××××××××××××××××××××××××××××××××××××××××××××××××××××××××

    D      C      G          E          Em
e]--22222--00000--33333~----------0~~~----0--------0~~~--|
B]--33333--11111--00000~---------0~~~---0---------0~~~---|
G]--22222--00000--00000~--------1~~~--------0----0~~~----|
D]--00000--22222--00000~-------2~~~-------------2~~~-----|
A]---------33333--22222~------2~~~-------------2~~~------|
E]----------------33333~-----0~~~-------------0~~~-------|

D                C
La la la la la, da da da da da
G                E   Em
La la la la la, daa.....

×××××××××××××××××××××××××××××××××××××××××××××××××××××××××
×××××××××××××××××××××××××××××××××××××××××××××××××××××××××

In this way, the above indicates how many times the chord is strummed, and the
"lyrics" below indicate when the chord is changed. Similarly, you can see that
the E is written differently to the former, which indicates a slow, singular
strum (then letting it ring). Finally, the Em tabbed at the end shows a short
picked chord followed by another slow, singular strum (again letting it ring).

Thus, the reader should be able to sufficiently and successfully identify how to
fit the given information together. This now hopefully leaves no stone unturned,
and enables you all to understand how to read this guide. With this said, it may
be useful for you to understand the following techniques used in this guide:


 TABLATURE LEGEND:
(h) = hammer-on
(p) = pull-off
(/) = slide
(~) = let it ring
(x) = muted strings
N/C = No Chord


××××××××××××××××××××××××××××××××××××××××××××××××××××××××××××××××××××××××××××××××
1.                    V a n i l l a   I c e   C r e a m
××××××××××××××××××××××××××××××××××××××××××××××××××××××××××××××××××××××××××××××××

Tabbed by Jordan Lapping

Standard E Tuning, Capo 1st Fret [All tabs relative to Capo]


 CHORDS USED:
     A    D    E    Em   E7   G
e]---0----2----0----0----0----3---|
B]---2----3----0----0----0----0---|
G]---2----2----1----0----1----0---|
D]---2----0----2----2----0----0---|
A]---0---------2----2----2----2---|
E]-------------0----0----0----3---|


 INTRO:
    A     Em      A     Em      A     Em      A      Em
e|----00--0~-000----00--0~-000----00--0~-000----000----000--|
B|----22--0~-000----22--0~-000----22--0~-000----222----000--|
G|----22--0~-000----22--0~-000----22--0~-000----222----000--|
D|----22--2~-222----22--2~-222----22--2~-222----222----222--|
A|--0-00--2~-222--0-00--2~-222--0-00--2~-222--0-000----222--|
E|--------0~-000--------0~-000--------0~-000---------0-000--|


 VERSE 1:
    A     Em     A     Em     A     Em    A     Em
e|----00----000----00----000----00----00----00----000--|
B|----22----000----22----000----22----00----22----000--|
G|----22----000----22----000----22----00----22----000--|
D|----22----222----22----222----22----22----22----222--|
A|--0-00----222--0-00----222--0-00----22--0-00----222--|
E|--------0-000--------0-000--------0-00--------0-000--|

    A     Em    A     Em    A     Em    G     D     E       E7
e|----00----00----00----00----00----00----33--2222--0~-0000-00--|
B|----22----00----22----00----22----00----00--3333--0~-0000-00--|
G|----22----00----22----00----22----00----00--2222--1~-1111-11--|
D|----22----22----22----22----22----22----00--0000--2~-2222p00--|
A|--0-00----22--0-00----22--0-00----22----22--------2~-2222-22--|
E|--------0-00--------0-00--------0-00--3-33--------0~-0000-00--|

 A               Em       A                  Em
Have a seat and listen, please don't say a thing
      A              Em                   A                 Em
With matters of the heart sometimes the truth will have a sting
 A                  Em           A           Em
Just don't take it personally, this is no attack
    A              Em                G         D       E
But we will never last because I'm white, and you are... also white


 CHORUS 1:
    A     Em    G     D       A     Em    G     D
e|--0-00--0-00--3-33--2h3p22--0-00--0-00--3-33--2222--|
B|--2-22--0-00--0-00--3-3-33--2-22--0-00--0-00--3333--|
G|--2-22--0-00--0-00--2-2-22--2-22--0-00--0-00--2222--|
D|--2-22--2-22--0-00--0-0-00--2-22--2-22--0-00--0000--|
A|--0-00--2-22--2-22----------0-00--2-22--2-22--------|
E|--------0-00--3-33----------------0-00--3-33--------|

    A     Em    G     D       A     Em    G  D
e|--0-00--0-00--3-33--2h3p22--0-00--0-00--3--2--|
B|--2-22--0-00--0-00--3-3-33--2-22--0-00--0--3--|
G|--2-22--0-00--0-00--2-2-22--2-22--0-00--------|
D|--2-22--2-22--0-00--0-0-00--2-22--2-22-----0--|
A|--0-00--2-22--2-22----------0-00--2-22--------|
E|--------0-00--3-33----------------0-00--3-----|

  E7          A                Em              G           D
I only like black girls, the brown girls, the café au lait
   A               Em                G          D
Caramel girls and mocha girls just blow me away
A                  Em                  G         D
If you are Nubian, I want you to be in every fantasy
     A                   Em                        G            D
But if you're a whitey, say nighty-nighty, you're just not the girl for me


 INTERLUDE:
    A     Em      A     Em      A     Em      A    Em
e|----00--0~-000--0~-0--0~-000----00--0~-000----00---000--|
B|----22--0~-000--2~-2--0~-000----22--0~-000----22---000--|
G|----22--0~-000--2~-2--0~-000----22--0~-000----22---000--|
D|----22--2~-222--2~-2--2~-222----22--2~-222----22---222--|
A|--0-00--2~-222--0~-0--2~-222--0-00--2~-222--0-00---222--|
E|--------0~-000--------0~-000--------0~-000-------0-000--|


 VERSE 2:
    A     Em    A     Em    A      Em    A      Em
e|----00----00----00----00----000----00----000--0~-0--|
B|----22----00----22----00----222----00----222--0~-0--|
G|----22----00----22----00----222----00----222--0~-0--|
D|----22----22----22----22----222----22----222--2~-2--|
A|--0-00----22--0-00----22--0-000----22--0-000--2~-2--|
E|--------0-00--------0-00---------0-00---------0~-0--|

    A     Em    A     Em    A     Em      G  D  E     E7
e|--0-00--0-00--0-00--0-00--0-00--0~-000--3--2--0~-00-0000--|
B|--2-22--0-00--2-22--0-00--2-22--0~-000--0--3--0~-00-0000--|
G|--2-22--0-00--2-22--0-00--2-22--0~-000--------1~-11-1111--|
D|--2-22--2-22--2-22--2-22--2-22--2~-222-----0--2~-22p2200--|
A|--0-00--2-22--0-00--2-22--0-00--2~-222--------2~-22-2222--|
E|--------0-00--------0-00--------0~-000--3-----0~-00-0000--|

       A            Em                 A           Em
Oh, I hate vanilla ice cream, I like chocolate instead
   A                  Em               A              Em
I hope she likes her soul food with a little wonder bread
       A               Em              A              Em
Don't call it "Jungle Fever", 'cause that just isn't right
A           Em                 G      D          E    E7
I am not a racist; some of my best friends are white...


 CHORUS 2:
    A     Em    G     D       A     Em    G     D
e|--0-00--0-00--3-33--2h3p22--0-00--0-00--3-33--2222--|
B|--2-22--0-00--0-00--3-3-33--2-22--0-00--0-00--3333--|
G|--2-22--0-00--0-00--2-2-22--2-22--0-00--0-00--2222--|
D|--2-22--2-22--0-00--0-0-00--2-22--2-22--0-00--0000--|
A|--0-00--2-22--2-22----------0-00--2-22--2-22--------|
E|--------0-00--3-33----------------0-00--3-33--------|

    A     Em    G     D       A     Em    G  D
e|--0-00--0-00--3-33--2h3p22--0-00--0-00--3--2--|
B|--2-22--0-00--0-00--3-3-33--2-22--0-00--0--3--|
G|--2-22--0-00--0-00--2-2-22--2-22--0-00--------|
D|--2-22--2-22--0-00--0-0-00--2-22--2-22-----0--|
A|--0-00--2-22--2-22----------0-00--2-22--------|
E|--------0-00--3-33----------------0-00--3-----|

                A                Em              G           D
I just prefer black girls, the brown girls, the café au lait
   A               Em                G          D
Caramel girls and mocha girls just blow me away
A                         Em                     G                 D
If you're a cracker, you better get blacker, or else you best get out
A                 Em                         G              D   
It is no mystery, I like Kaur Sisters, see that's what I'm talking about


 INTERLUDE:
    A     Em      A     Em      A     Em      A     Em
e|--0-00--0~-000--0-00--0~-000--0~-0--0~-000--0~-0--0~-000--|
B|--2-22--0~-000--2-22--0~-000--2~-2--0~-000--2~-2--0~-000--|
G|--2-22--0~-000--2-22--0~-000--2~-2--0~-000--2~-2--0~-000--|
D|--2-22--2~-222--2-22--2~-222--2~-2--2~-222--2~-2--2~-222--|
A|--0-00--2~-222--0-00--2~-222--0~-0--2~-222--0~-0--2~-222--|
E|--------0~-000--------0~-000--------0~-000--------0~-000--|


 VERSE 3:
    A     Em      A     Em      A     Em    A     Em
e|--0~-0--0~-000--0~-0--0~-000--0-00--0-00--0-00--0~-000--|
B|--2~-2--0~-000--2~-2--0~-000--2-22--0-00--2-22--0~-000--|
G|--2~-2--0~-000--2~-2--0~-000--2-22--0-00--2-22--0~-000--|
D|--2~-2--2~-222--2~-2--2~-222--2-22--2-22--2-22--2~-222--|
A|--0~-0--2~-222--0~-0--2~-222--0-00--2-22--0-00--2~-222--|
E|--------0~-000--------0~-000--------0-00--------0~-000--|

    A     Em    A     Em    A     Em  G  D  E     E7
e|--0-00--0-00--0-00--0-00--0-00--0---3--2--0~-00-0000--|
B|--2-22--0-00--2-22--0-00--2-22--0---0--3--0~-00-0000--|
G|--2-22--0-00--2-22--0-00--2-22--0---------1~-11-1111--|
D|--2-22--2-22--2-22--2-22--2-22--2------0--2~-22p2200--|
A|--0-00--2-22--0-00--2-22--0-00--2---------2~-22-2222--|
E|--------0-00--------0-00--------0---3-----0~-00-0000--|

     A                Em      A        Em
Our wedding song will be "Ebony and Ivory"
     A                     Em               A             Em
And we'll sing Christmas Charols around the old kwanzaa tree
     A                 Em               A              Em
But colour is not the issue here; it's dignity, it's class 
A                   Em      N/C        G       D         E    E7
It's all about her heart... okay it's partly about that ass


 CHORUS 3:
    A     Em    G     D       A     Em    G     D
e|--0-00--0-00--3-33--2h3p22--0-00--0-00--3-33--2222--|
B|--2-22--0-00--0-00--3-3-33--2-22--0-00--0-00--3333--|
G|--2-22--0-00--0-00--2-2-22--2-22--0-00--0-00--2222--|
D|--2-22--2-22--0-00--0-0-00--2-22--2-22--0-00--0000--|
A|--0-00--2-22--2-22----------0-00--2-22--2-22--------|
E|--------0-00--3-33----------------0-00--3-33--------|

    A     Em    G     D       A     Em    G  D
e|--0-00--0-00--3-33--2h3p22--0-00--0-00--3--2--|
B|--2-22--0-00--0-00--3-3-33--2-22--0-00--0--3--|
G|--2-22--0-00--0-00--2-2-22--2-22--0-00--------|
D|--2-22--2-22--0-00--0-0-00--2-22--2-22-----0--|
A|--0-00--2-22--2-22----------0-00--2-22--------|
E|--------0-00--3-33----------------0-00--3-----|

E                A                Em              G           D
I want me some black girl, some brown girl, some café au lait
       A               Em                G          D
Oh, caramel girls and mocha girls just blow me away
A                          Em                    G                 D
If you're a Honky, you're singing the wrong key, it's the honest truth 
      A                          Em
The skin that she's dwellin in, must contain melanin
  G          D
That is the Fountain of Youth...


 INTERLUDE:
    A     Em    A     Em      A      Em     A    Em
e|----00----00--0~-0--0~-000--0-00--0~-000--000--0~-000--|
B|----22----00--2~-2--0~-000--2-22--0~-000--222--0~-000--|
G|----22----00--2~-2--0~-000--2-22--0~-000--222--0~-000--|
D|----22----22--2~-2--2~-222--2-22--2~-222--222--2~-222--|
A|--0-00----22--0~-0--2~-222--0-00--2~-222--000--2~-222--|
E|--------0-00--------0~-000--------0~-000-------0~-000--|


 BRIDGE:
    A     Em      A      Em      A     Em      A    Em
e|----00--0~-000----000--0~-000----00--0~-000--000--0~-000--|
B|----22--0~-000----222--0~-000----22--0~-000--222--0~-000--|
G|----22--0~-000----222--0~-000----22--0~-000--222--0~-000--|
D|----22--2~-222----222--2~-222----22--2~-222--222--2~-222--|
A|--0-00--2~-222--0-000--2~-222--0-00--2~-222--000--2~-222--|
E|--------0~-000---------0~-000--------0~-000-------0~-000--|

    A     Em      A     Em    A     Em      A     Em
e|----00--0~-000--0~-0--0000--0~-0--0~-000--0~-0--0~-000--|
B|----22--0~-000--2~-2--0000--2~-2--0~-000--2~-2--0~-000--|
G|----22--0~-000--2~-2--0000--2~-2--0~-000--2~-2--0~-000--|
D|----22--2~-222--2~-2--2222--2~-2--2~-222--2~-2--2~-222--|
A|--0-00--2~-222--0~-0--2222--0~-0--2~-222--0~-0--2~-222--|
E|--------0~-000--------0000--------0~-000--------0~-000--|

    A     Em      A     Em      A     Em      A    Em
e|--0~-0--0~-000--0~-0--0~-000--0~-0--00~-00--000--0~-000--|
B|--2~-2--0~-000--2~-2--0~-000--2~-2--00~-00--222--0~-000--|
G|--2~-2--0~-000--2~-2--0~-000--2~-2--00~-00--222--0~-000--|
D|--2~-2--2~-222--2~-2--2~-222--2~-2--22~-22--222--2~-222--|
A|--0~-0--2~-222--0~-0--2~-222--0~-0--22~-22--000--2~-222--|
E|--------0~-000--------0~-000--------00~-00-------0~-000--|

    A     Em    A    Em
e|--0-00--0-00--000--0~-000--|
B|--2-22--0-00--222--0~-000--|
G|--2-22--0-00--222--0~-000--|
D|--2-22--2-22--222--2~-222--|
A|--0-00--2-22--000--2~-222--|
E|--------0-00-------0~-000--|

A       Em       A   Em   A   Em    A    Em
Thomas Jefferson...
          A   Em   A   Em   A   Em    A    Em
Robert DeNiro...
       A    Em   A   Em   A
David Bowie...
      Em            A   Em   A 
To a certain extent...
           Em   A   Em
Ted Dansen...


 OUTRO:
    A     Em    A     Em    A     Em    G  D  A
e|--0-00--0-00--0-00--0-00--0-00--0-00--3--2--0~~~--|
B|--2-22--0-00--2-22--0-00--2-22--0-00--0--3--2~~~--|
G|--2-22--0-00--2-22--0-00--2-22--0-00--0--2--2~~~--|
D|--2-22--2-22--2-22--2-22--2-22--2-22--0--0--2~~~--|
A|--0-00--2-22--0-00--2-22--0-00--2-22--2-----0~~~--|
E|--------0-00--------0-00--------0-00--3-----------|

        A       Em      A
Strom Thurmooooooooooooooooooond!

   Em           A       Em      G   D
Stroo-ooo-oom Thurmooooooooooooooooond!
 A
Yeeeaah...




××××××××××××××××××××××××××××××××××××××××××××××××××××××××××××××××××××××××××××××××
2.                             U g l y   B a b y
××××××××××××××××××××××××××××××××××××××××××××××××××××××××××××××××××××××××××××××××

Tabbed by Jordan Lapping

Standard E Tuning


 CHORDS USED:
     A    A4   A7   Bm   D    E   F#m
e]---0----0----0----2----2----0----2---|
B]---2----3----2----3----3----0----2---|
G]---2----2----0----4----2----1----2---|
D]---2----2----2----4----0----2----4---|
A]---0----0----0----2---------2----4---|
E]----------------------------0----2---|


 INTRO:
    A                 A4
e|--000000-000000000--000000--|
B|--222222-222222222--333333--|
G|--222222-222222222--222222--|
D|--222222-222222222--222222--| (x4)
A|--000000-000000000--000000--|
E|----------------------------|


 VERSE 1:
    Bm     E      A            Bm     E      A     A7
e]--22222--00000--0000000000-|-22222--00000--00000-00000--|
B]--33333--00000--2222222222-|-33333--00000--22222-22222--|
G]--44444--11111--2222222222-|-44444--11111--22222p00000--|
D]--44444--22222--2222222222-|-44444--22222--22222-22222--|
A]--22222--22222--0000000000-|-22222--22222--00000-00000--|
E]---------00000-------------|--------00000---------------|

    Bm     E      F#m    D             E
e]--22222--00000--22222--222222222222--0000000000--|
B]--33333--00000--22222--333333333333--0000000000--|
G]--44444--11111--22222--222222222222--1111111111--|
D]--44444--22222--44444--000000000000--2222222222--|
A]--22222--22222--44444----------------2222222222--|
E]---------00000--22222----------------0000000000--|

    Bm         E       A      Bm         E           A   A7
My lady gives birth today, I run to her room right away
      Bm          E        F#m          D
She smiles with glee, and hands her to me
                          E
I look at my newborn and say...


 CHORUS 1:
    A      Bm     E
e]--00000--22222--0000000000--|
B]--22222--33333--0000000000--|
G]--22222--44444--1111111111--|
D]--22222--44444--2222222222--| (x2)
A]--00000--22222--2222222222--|
E]----------------0000000000--|

    Bm     E      Bm     E      D      E
e]--22222--00000--22222--00000--22222--00000--|
B]--33333--00000--33333--00000--33333--00000--|
G]--44444--11111--44444--11111--22222--11111--|
D]--44444--22223--44444--22222--00000--22222--|
A]--22222--22223--22222--22222---------22222--|
E]---------00000---------00000---------00000--|

 A              Bm    E     A              Bm        E
Damn, that's an ugly baby! Damn, that's an ugly-ass baby!
     Bm               E          Bm              E
I'm feeling quite concerned, my semen must have turned 
        D              E
'Cause damn, that's an ugly baby...


 PRE-VERSE:
    A                 A4
e|--000000-000000000--000000--|
B|--222222-222222222--333333--|
G|--222222-222222222--222222--|
D|--222222-222222222--222222--| (x2)
A|--000000-000000000--000000--|
E|----------------------------|


 VERSE 2:
    Bm     E      A            Bm     E      A     A7
e]--22222--00000--0000000000-|-22222--00000--00000-00000--|
B]--33333--00000--2222222222-|-33333--00000--22222-22222--|
G]--44444--11111--2222222222-|-44444--11111--22222p00000--|
D]--44444--22222--2222222222-|-44444--22222--22222-22222--|
A]--22222--22222--0000000000-|-22222--22222--00000-00000--|
E]---------00000-------------|--------00000---------------|

    Bm     E      F#m    D             E
e]--22222--00000--22222--222222222222--0000000000--|
B]--33333--00000--22222--333333333333--0000000000--|
G]--44444--11111--22222--222222222222--1111111111--|
D]--44444--22222--44444--000000000000--2222222222--|
A]--22222--22222--44444----------------2222222222--|
E]---------00000--22222----------------0000000000--|

   Bm             E             A             Bm          E     A   A7
I can't believe this came from me; think her mom did too much LSD 
        Bm            E       F#m                D
She's skinny like a twig, at least her nuts are big (!)
                                E
But the placenta is cuter than she is...


 CHORUS 2:
    A      Bm     E
e]--00000--22222--0000000000--|
B]--22222--33333--0000000000--|
G]--22222--44444--1111111111--|
D]--22222--44444--2222222222--| (x2)
A]--00000--22222--2222222222--|
E]----------------0000000000--|

    Bm     E      Bm     E      D      E
e]--22222--00000--22222--00000--22222--00000--|
B]--33333--00000--33333--00000--33333--00000--|
G]--44444--11111--44444--11111--22222--11111--|
D]--44444--22223--44444--22222--00000--22222--|
A]--22222--22223--22222--22222---------22222--|
E]---------00000---------00000---------00000--|

 A              Bm    E         A              Bm        E
Damn, that's an ugly baby! God damn, that's an ugly-ass baby!
         Bm              E            Bm            E
I can't take her home today, she'll scare the dog away 
        D              E     A
'Cause damn, that's an ugly baby...


 PRE-BRIDGE:
    A
e|--000000-000000000-000000--|
B|--222222-222222222-222222--|
G|--222222-222222222-222222--|
D|--222222-222222222-222222--| (x2)
A|--000000-000000000-000000--|
E|---------------------------|


 BRIDGE:
    Bm                       A            E
e|--22222-22222-22222-22222--00000-00000--00000-00000--|
B|--33333-33333-33333-33333--22222-22222--00000-00000--|
G|--44444-44444-44444-44444--22222-22222--11111-11111--|
D|--44444-44444-44444-44444--22222-22222--22222-22222--| (x3)
A|--22222-22222-22222-22222--00000-00000--22222-22222--|
E|--22222-22222-22222-22222---------------00000-00000--|

    Bm                       A     E
e|--22222-22222-22222-22222--0~~~-------0~~~--|
B|--33333-33333-33333-33333--2~~~------0~~~---|
G|--44444-44444-44444-44444--2~~~-----1~~~----|
D|--44444-44444-44444-44444--2~~~----2~~~-----|
A|--22222-22222-22222-22222--0~~~---2~~~------|
E|--22222-22222-22222-22222--------0~~~-------|

Bm                         A                  E
And when she smiles I find... Shane MacGowan comes to mind
Bm                      A                    E
It makes me want to cry... when I look into her good eye
Bm                   A                 E
I always wanted kids - is it wrong to hope for SIDS?
Bm                         A                 E
Then the doctor calls me in, "Mr. Lynch she has a twin"...


 CHORUS 3:
    A      Bm     E
e]--00000--22222--0000000000--|
B]--22222--33333--0000000000--|
G]--22222--44444--1111111111--|
D]--22222--44444--2222222222--| (x2)
A]--00000--22222--2222222222--|
E]----------------0000000000--|

    Bm     E      Bm     E      D      E
e]--22222--00000--22222--00000--22222--00000--|
B]--33333--00000--33333--00000--33333--00000--|
G]--44444--11111--44444--11111--22222--11111--|
D]--44444--22223--44444--22222--00000--22222--|
A]--22222--22223--22222--22222---------22222--|
E]---------00000---------00000---------00000--|

 A              Bm           E             A          Bm           E
Damn, that's a good-lookin' baby! One-for-two on the good-lookin' babies!
  Bm               E          Bm             E
I almost start to weep, now this one we can keep
         D         E
'Cause that was an ugly ass-


 INTERLUDE:
    A      Bm     E
e]--00000--22222--0000000000--|
B]--22222--33333--0000000000--|
G]--22222--44444--1111111111--|
D]--22222--44444--2222222222--| (x4)
A]--00000--22222--2222222222--|
E]----------------0000000000--|

 A              Bm    E     A              Bm    E
Damn, that's an ugly baby! Damn, that's an ugly baby!
 A              Bm    E     A              Bm    E
Damn, that's an ugly baby! Damn, that's an ugly baby!


 VERSE 3:
    A      Bm     E
e]--00000--22222--0000000000--|
B]--22222--33333--0000000000--|
G]--22222--44444--1111111111--|
D]--22222--44444--2222222222--| (x4)
A]--00000--22222--2222222222--|
E]----------------0000000000--|

       A            Bm            E
She's got one good tooth and one ear and one eye
           A            Bm            E
And thank God just one nose, but it's on her left thigh
     A          Bm          E
Now doctor I am asking you guy-to-guy
         A                      Bm         E
Would a really, really, really late-term abortion still fly?


 OUTRO:
    A      Bm     E
e]--00000--22222--0000000000--|
B]--22222--33333--0000000000--|
G]--22222--44444--1111111111--|
D]--22222--44444--2222222222--| (x3)
A]--00000--22222--2222222222--|
E]----------------0000000000--|

    A     Bm         E
e]--0~~~------2-~~~-----------0~-00000~~-0--|
B]--2~~~-----3~~~-----------0~---00000~~-0--|
G]--2~~~----4~~~----------1~-----11111~~-1--|
D]--2~~~---4~~~---------2~-------22222~~-2--|
A]--0~~~--2~~~--------2~---------22222~~-2--|
E]------------------0~-----------00000~~-0--|

     A       Bm         E           A      Bm    E
Oh, no - my baby - not me! I don't want no ugly baby! 
        A             Bm    E
I said damn that's an ugly baby
 A             Bm        E
Damn that's an ugly-ass baby...




××××××××××××××××××××××××××××××××××××××××××××××××××××××××××××××××××××××××××××××××
3.                             H a l l o w e e n
××××××××××××××××××××××××××××××××××××××××××××××××××××××××××××××××××××××××××××××××

Tabbed by Jordan Lapping

Standard E Tuning


 CHORDS USED:
     Am   C    D    Dm   E    F  Fmaj7  G
e]---0----0----2----1----0----1----0----3---|
B]---1----1----3----3----0----1----1----0---|
G]---2----0----2----2----1----2----2----0---|
D]---2----2----0----0----2----3----3----0---|
A]---0----3--------------2----3----0----2---|
E]-----------------------0----1---------3---|


 INTRO:
    Am     Fmaj7
e]--00000--00000--|
B]--11111--11111--|
G]--22222--22222--|
D]--22222--33333--| (x4)
A]--00000--00000--|
E]----------------|


 VERSE 1:
    Am     Fmaj7
e]--00000--00000--|
B]--11111--11111--|
G]--22222--22222--|
D]--22222--33333--| (x14)
A]--00000--00000--|
E]----------------|

    Am     Fmaj7   G
e]--00000--00000--33333-33333--|
B]--11111--11111--00000-00000--|
G]--22222--22222--00000-00000--|
D]--22222--33333--00000-00000--|
A]--00000--00000--22222-22222--|
E]----------------33333-33333--|

  Am        Fmaj7          Am
Thinking of all the cool creatures
Fmaj7        Am  Fmaj7       Am     Fmaj7
That I will meet... on this night
  Am       Fmaj7        Am
Ghosts and goblins and witches
Fmaj7          Am  Fmaj7       Am     Fmaj7
Roaming the streets... in moonlight
 Am      Fmaj7      Am
Bowls of candy and goodies
   Fmaj7       Am    Fmaj7    Am     Fmaj7
Delicious and waiting... in store
     Am      Fmaj7        Am
The sound of cute little footsteps
Fmaj7       Am   Fmaj7   G
As they approach... my front door


 CHORUS 1:
    C      G      Am     F
e]--00000--33333--00000--11111--|
B]--11111--00000--11111--11111--|
G]--00000--00000--22222--22222--|
D]--22222--00000--22222--33333--| (x4)
A]--33333--22222--00000--33333--|
E]---------33333---------11111--|

 C            G         Am            F
Letting the children inside to drink beers
 C            G           Am       F
Razor blades hidden in three musketeers
   C              G           Am           F          C
Screams from the basement of kids begging to be set free
  G         Am       F            Am
That's what... Halloween means to me


 PRE-VERSE:
    Am     Fmaj7
e]--00000--00000--|
B]--11111--11111--|
G]--22222--22222--|
D]--22222--33333--| (x4)
A]--00000--00000--|
E]----------------|


 VERSE 2:
    Am     Fmaj7
e]--00000--00000--|
B]--11111--11111--|
G]--22222--22222--|
D]--22222--33333--| (x14)
A]--00000--00000--|
E]----------------|

    Am     Fmaj7  G
e]--00000--00000--33333-33333--|
B]--11111--11111--00000-00000--|
G]--22222--22222--00000-00000--|
D]--22222--33333--00000-00000--|
A]--00000--00000--22222-22222--|
E]----------------33333-33333--|

 Am             Fmaj7           Am
Tightening the clamps that are holding 
Fmaj7         Am  Fmaj7   Am     Fmaj7
Their little heads... so tight
 Am        Fmaj7         Am
Putting my lips to their ears
 Fmaj7          Am  Fmaj7      Am     Fmaj7
As I whisper "Please... don't fight"
    Am         Fmaj7       Am
I promise I'll let you go home
       Fmaj7        Am  Fmaj7  Am     Fmaj7
If you swear not to tell... a soul
       Am         Fmaj7            Am
Well, I'll just untie these.. I'm kidding
    Fmaj7         Am      Fmaj7           G
Now where is my chainsaw? Let's rock and roll!


 CHORUS 2:
    C      G      Am     F
e]--00000--33333--00000--11111--|
B]--11111--00000--11111--11111--|
G]--00000--00000--22222--22222--|
D]--22222--00000--22222--33333--| (x4)
A]--33333--22222--00000--33333--|
E]---------33333---------11111--|

   C              G         Am          F
A pinch of your brother, a teaspoon of you 
          C            G            Am           F
With the head of your sister would make a good stew
     C          G                Am               F       C
I'd give you a taste but you're tongue's in the stew; irony...
  G         Am       F            Am
That's what... Halloween means to me


 PRE-BRIDGE:
    Am
e]--00000-00000--|
B]--11111-11111--|
G]--22222-22222--|
D]--22222-22222--| (x4)
A]--00000-00000--|
E]---------------|


 BRIDGE:
    Dm     Am     C      G 
e]--11111--00000--00000--33333--|
B]--33333--11111--11111--00000--|
G]--22222--22222--00000--00000--|
D]--00000--22222--22222--00000--| (x3)
A]---------00000--33333--22222--|
E]-----------------------33333--|

    Dm     Am     E
e]--11111--00000--0~~~--|
B]--33333--11111--0~~~--|
G]--22222--22222--1~~~--|
D]--00000--22222--2~~~--|
A]---------00000--2~~~--|
E]----------------------|

  Dm       Am     C       G
Trick-or-treat, smell my feet
 Dm      Am        C      G  
Give me something good to eat
  Dm       Am     C       G
Trick-or-treat, smell my feet
 Dm      Am     E
Give me someone... good to eat


 OUTRO:
    Am     Fmaj7
e]--00000--00000--|
B]--11111--11111--|
G]--22222--22222--|
D]--22222--33333--| (x3)
A]--00000--00000--|
E]----------------|

    Am
e]--0000000--|
B]--1111111--|
G]--2222222--|
D]--2222222--|
A]--0000000--|
E]--0000000--|




××××××××××××××××××××××××××××××××××××××××××××××××××××××××××××××××××××××××××××××××
4.			       L o v e   S o n g
××××××××××××××××××××××××××××××××××××××××××××××××××××××××××××××××××××××××××××××××

Tabbed by Jordan Lapping

Standard E Tuning, Capo 4th Fret [All tabs relative to Capo]


 CHORDS USED:
     Am   C    C9   G
e]---0----0----0----3---|
B]---1----1----1----0---|
G]---2----0----0----0---|
D]---2----2----0----0---|
A]---0----3----2----2---|
E]-------------3----3---|


 INTRO:
    C9         C        D           C9         C        D 
e|-------------0--------2--------|-------------------------2~~~--|
B|------1-0~~----1--------3------|------1-0~~--1----------3~~~---|
G|----0---0~~------0--------2----|----0---0~~----0-------2~~~----|
D|-------------------0--------0--|-----------------2----0~~~-----|
A|-------------3-----------------|-------------3-----3-----------|
E|--3----------------------------|--3----------------------------|


 VERSE 1:
    C  G      C  G      C  G      Am D
e|---------|---------|---------|-----2~--|
B|--1--0~--|--1--0~--|--1--0~--|--1--3~--|
G|--0--0~--|--0--0~--|--0--0~--|--2------|
D|---------|---------|---------|-----0~--| (x4)
A|--3------|--3------|--3------|--0------|
E|-----3~--|-----3~--|-----3~--|---------|

C           G            C                G
If I had a hammer, I'd build a house for two
     C          G                 Am               D
And if I had a sailing ship, I'd take a trip with you
     C          G                 C                 G
And if I had a poets' hand, I'd write a verse for thee
     C            G                   Am               D
And if I had the painters' touch, on canvas you would be


 VERSE 2:
    C  G      C  G      C  G      Am D
e|---------|---------|---------|-----2~--|
B|--1--0~--|--1--0~--|--1--0~--|--1--3~--|
G|--0--0~--|--0--0~--|--0--0~--|--2------|
D|---------|---------|---------|-----0~--| (x4)
A|--3------|--3------|--3------|--0------|
E|-----3~--|-----3~--|-----3~--|---------|

       C            G             C             G
But I don't have a hammer, and I don't have a ship
      C             G             Am            D
So I can't build a house, and we can't take a trip
          C          G         C                   G
And I'll never be a poet, nor have the painters' grace
         C                G            Am             D
So I'll never write your verse, nor immortalize your face...
N/C
"And also, I have herpes."


 OUTRO:
    C9     C        D        G
e|---------0--------1-------------3~~~--|
B|--1-0~~----1--------2----------3~~~---|
G|--0-0~~------0--------1-------0~~~----|
D|---------------0--0-----0----0~~~-----|
A|---------3------------------2~~~------|
E|--3-3~~--------------------3~~~-------|




××××××××××××××××××××××××××××××××××××××××××××××××××××××××××××××××××××××××××××××××
5.                                 C r a i g
××××××××××××××××××××××××××××××××××××××××××××××××××××××××××××××××××××××××××××××××

Tabbed by Jordan Lapping

Standard E Tuning


 CHORDS USED:
     Am   B7  C/G   E    E7  Eaug
e]---0---------0----0----0--------|
B]---1----0----1----0----0----0---|
G]---2----2----0----1----1----1---|
D]---2----1----2----2----0----2---|
A]---0----2----3----2----0----3---|
E]--------0----3----0----0----0---|


 INTRO:
    E              Eaug        E7  E              Eaug
e|----------------------------------------------------------------|
B|--0-0-0-0-0-0-00-0-0-0-0-0-0-0-0-0-0-0-0-0-0-00-0-0-0-0-0-0-00--|
G|--1-1-1-1-1-1-11-1-1-1-1-1-1-1-1-1-1-1-1-1-1-11-1-1-1-1-1-1-11--|
D|--2-2-2-2-2-2-22-2-2-2-2-2-2p0-0h2-2-2-2-2-2-22-2-2-2-2-2-2-22--|
A|--2-2-2-2-2-2-22h3-3-3-3-3-3p0-0h2-2-2-2-2-2-22h3-3-3-3-3-3-33--|
E|--0-0-0-0-0-0-00-0-0-0-0-0-0-0-0-0-0-0-0-0-0-00-0-0-0-0-0-0-00--|

    E7   E              Eaug            E7   E              Eaug
e|--0000-0~~~---------------------------0000-0~~~---------------------------|
B|--0000-0-0-0-0-0-0-00-0-0-0-0-0-0-00--0000-0-0-0-0-0-0-00-0-0-0-0-0-0-00--|
G|--1111-1-1-1-1-1-1-11-1-1-1-1-1-1-11--1111-1-1-1-1-1-1-11-1-1-1-1-1-1-11--|
D|--0000h2-2-2-2-2-2-22-2-2-2-2-2-2-22--0000h2-2-2-2-2-2-22-2-2-2-2-2-2-22--|
A|--0000h2-2-2-2-2-2-22h3-3-3-3-3-3-33--0000h2-2-2-2-2-2-22h3-3-3-3-3-3-33--|
E|--0000-0-0-0-0-0-0-00-0-0-0-0-0-0-00--0000-0-0-0-0-0-0-00-0-0-0-0-0-0-00--|


 VERSE 1: [Play twice, the collected chord progression shown below.]
    E              Eaug           E              Eaug
e|---------------------------------------------------------------|
B|--0-0-0-0-0-0-00-0-0-0-0-0-0-00-0-0-0-0-0-0-00-0-0-0-0-0-0-00--|
G|--1-1-1-1-1-1-11-1-1-1-1-1-1-11-1-1-1-1-1-1-11-1-1-1-1-1-1-11--|
D|--2-2-2-2-2-2-22-2-2-2-2-2-2-22-2-2-2-2-2-2-22-2-2-2-2-2-2-22--|
A|--2-2-2-2-2-2-22h3-3-3-3-3-3-33p2-2-2-2-2-2-22h3-3-3-3-3-3-33--|
E|--0-0-0-0-0-0-00-0-0-0-0-0-0-00-0-0-0-0-0-0-00-0-0-0-0-0-0-00--|

    E              Eaug           B7
e|-----------------------------0------------|
B|--0-0-0-0-0-0-00-0-0-0-0-0-0-0------0~~~--|
G|--1-1-1-1-1-1-11-1-1-1-1-1-1-1-----2~~~---|
D|--2-2-2-2-2-2-22-2-2-2-2-2-2-2----1~~~----|
A|--2-2-2-2-2-2-22h3-3-3-3-3-3-3---2~~~-----|
E|--0-0-0-0-0-0-00-0-0-0-0-0-0-0--0~~~------|

 E              Eaug       E                 Eaug
Everyone knows Jesus, the man who healed the lame
    E            Eaug      B7
But I am Jesus' brother, Craig is my name...
 E            Eaug             E           Eaug
Jesus is the Prince of Peace, Jesus is the Lamb
 E           Eaug              B7
Jesus is the Son of God, but Craig don't give a damn...


 CHORUS 1:
    E         C/G         
e|--0-000000--0-000000--|
B|--0-000000--1-111111--|
G|--1-111111--0-000000--|
D|--2-222222--2-222222--| (x4)
A|--2-222222--3-333333--|
E|--0-000000--3-333333--|

    E            C/G         
e|--0-00000-000--0-00-000--|
B|--0-00000-000--1-11-111--|
G|--1-11111-111--0-00-000--|
D|--2-22222-222--2-22-222--| (x3)
A|--2-22222-333--3-33-333--|
E|--0-00000-333--3-33-333--|

    E          Eaug       E          Eaug
e|-----------------------------------------------|
B|--0-0--------0-0--------0-0--------0-0---------|
G|--1-1-111111-1-1-111111-1-1-111111-1-1-111111--|
D|--2-2-222222-2-2-222222-2-2-222222-2-2-222222--|
A|--2-2-222222h3-3-333333p2-2-222222h3-3-333333--|
E|--0-0-000000-0-0-000000-0-0-000000-0-0-000000--|

N/C            E                           C/G  
Because when Craig's in sight, we'll party all damn night
              E                        C/G 
I don't turn water into wine but into cold Coors Light
             E                            C/G 
I'm not my brother, I know, don't walk on H2O
           E                           C/G 
But I got hydroponic shit that me and Judas grow!
              E                          C/G 
I'm fuckin' Craig!
              E                          C/G 
I'm fuckin' Craig!
              E                          C/G 
I'm fuckin' Craig!
        E        Eaug       E       Eaug
Craig Christ...


 VERSE 2: [Play twice, the collected chord progression shown below.]
    E              Eaug           E              Eaug
e|---------------------------------------------------------------|
B|--0-0-0-0-0-0-00-0-0-0-0-0-0-00-0-0-0-0-0-0-00-0-0-0-0-0-0-00--|
G|--1-1-1-1-1-1-11-1-1-1-1-1-1-11-1-1-1-1-1-1-11-1-1-1-1-1-1-11--|
D|--2-2-2-2-2-2-22-2-2-2-2-2-2-22-2-2-2-2-2-2-22-2-2-2-2-2-2-22--|
A|--2-2-2-2-2-2-22h3-3-3-3-3-3-33p2-2-2-2-2-2-22h3-3-3-3-3-3-33--|
E|--0-0-0-0-0-0-00-0-0-0-0-0-0-00-0-0-0-0-0-0-00-0-0-0-0-0-0-00--|

    E              Eaug           B7
e|-----------------------------0------------|
B|--0-0-0-0-0-0-00-0-0-0-0-0-0-0------0~~~--|
G|--1-1-1-1-1-1-11-1-1-1-1-1-1-1-----2~~~---|
D|--2-2-2-2-2-2-22-2-2-2-2-2-2-2----1~~~----|
A|--2-2-2-2-2-2-22h3-3-3-3-3-3-3---2~~~-----|
E|--0-0-0-0-0-0-00-0-0-0-0-0-0-0--0~~~------|

E                Eaug      E            Eaug
I hang out with Lepars, Barabas and Salome
 E                  Eaug                   B7
Jesus' friends are called Apostles; those dudes are totally gay...
 E              Eaug           E         Eaug
Jesus performs miracles, from Galilee to Rome
    E              Eaug           B7
But it would be a miracle if he brought a fucking lady home...


 CHORUS 2:
    E         C/G         
e|--0-000000--0-000000--|
B|--0-000000--1-111111--|
G|--1-111111--0-000000--|
D|--2-222222--2-222222--| (x4)
A|--2-222222--3-333333--|
E|--0-000000--3-333333--|

    E            C/G         
e|--0-00000-000--0-00-000--|
B|--0-00000-000--1-11-111--|
G|--1-11111-111--0-00-000--|
D|--2-22222-222--2-22-222--| (x3)
A|--2-22222-333--3-33-333--|
E|--0-00000-333--3-33-333--|

    E          Eaug       E          Eaug
e|-----------------------------------------------|
B|--0-0--------0-0--------0-0--------0-0---------|
G|--1-1-111111-1-1-111111-1-1-111111-1-1-111111--|
D|--2-2-222222-2-2-222222-2-2-222222-2-2-222222--|
A|--2-2-222222h3-3-333333p2-2-222222h3-3-333333--|
E|--0-0-000000-0-0-000000-0-0-000000-0-0-000000--|

N/C            E                         C/G  
Because while Jesus is prayin', fuckin' Craig is layin'
       E                         C/G 
Every lady in the Testament, you know what I'm sayin'?
         E                        C/G 
I won't die for your sin, like my famous kin
            E                               C/G 
But if you got a little sister then there's room at this in!
              E                          C/G 
I'm fuckin' Craig!
              E                          C/G 
I'm fuckin' Craig!
              E                          C/G 
I'm fuckin' Craig!
        E        Eaug       E       Eaug
Craig Christ...


 BRIDGE:
    Am              E
e]--000-000000-000--000-000000-000--|
B]--111-111111-111--000-000000-000--|
G]--222-222222-222--111-111111-111--|
D]--222-222222-222--222-222222-222--|
A]--000-000000-000--222-222222-222--|
E]------------------000-000000-000--|

    Am              B7
e]--000-000000-000----------------------------|
B]--111-111111-111--000-000-------------------|
G]--222-222222-222--222-222-2-2-2-2-2-2-2-22--|
D]--222-222222-222--111-111-1-1-1-1-1-1-1-11--|
A]--000-000000-000--222-222-2-2-2-2-2-2-2-22--|
E]------------------000-000-0-0-0-0-0-0-0-00--|

 Am                          E
Jesus was our mothers fav., all her love to him she gave
 Am                             B7
But there's no sibling rivalry when he's nailed to that tree! Yeah!


 CHORUS 3:
    E         C/G         
e|--0-000000--0-000000--|
B|--0-000000--1-111111--|
G|--1-111111--0-000000--|
D|--2-222222--2-222222--| (x4)
A|--2-222222--3-333333--|
E|--0-000000--3-333333--|

    E            C/G         
e|--0-00000-000--0-00-000--|
B|--0-00000-000--1-11-111--|
G|--1-11111-111--0-00-000--|
D|--2-22222-222--2-22-222--| (x4)
A|--2-22222-333--3-33-333--|
E|--0-00000-333--3-33-333--|

              E                            C/G  
And now the question for you is not "What would Jesus do?"
                 E                                   C/G  
But "Where will you be when the Craig Machine comes partyin' through?"
            E                             C/G  
And if the Lord will allow, you've got to ask yourself how
             E                                 C/G  
And who and why and when and where is your messiah now?! 
               E                          C/G 
It's fuckin' Craig!
          E                          C/G 
Fuckin' Craig!
          E                          C/G 
Fuckin' Craig!
              E                          C/G 
I'm fuckin' Craig!


 OUTRO:
    E          Eaug       E          Eaug
e|-----------------------------------------------|
B|--0-0--------0-0--------0-0--------0-0---------|
G|--1-1-111111-1-1-111111-1-1-111111-1-1-111111--|
D|--2-2-222222-2-2-222222-2-2-222222-2-2-222222--|
A|--2-2-222222h3-3-333333p2-2-222222h3-3-333333--|
E|--0-0-000000-0-0-000000-0-0-000000-0-0-000000--|

    E         Eaug  E7 E
e|------------------------|
B|--0-0--------0-0--0--0--|
G|--1-1-111111-1-1--1--1--|
D|--2-2-222222-2-2--0--2--|
A|--2-2-222222h3-3--2--3--|
E|--0-0-000000-0-0--0--0--|

        E         Eaug
Craig Christ...
        E         Eaug
Craig Christ...
        E         Eaug
Craig Christ...
     E7       Em
I'm fuckin' Craig...




××××××××××××××××××××××××××××××××××××××××××××××××××××××××××××××××××××××××××××××××
6.                                 B e e l z
××××××××××××××××××××××××××××××××××××××××××××××××××××××××××××××××××××××××××××××××

Tabbed by Jordan Lapping

Standard E Tuning


 CHORDS USED:
    Am   A#5   C   C7  C/G   C5   C9   E5   F    F5   G    G5
e]---0---------0---0----0---------1---------1---------3--------|
B]---1---------1---1----1---------1---------1---------0--------|
G]---2---------0---3----0---------0---------2---------0--------|
D]---2----8----2---2----2----10---0----2----3----3----0----5---|
A]---0----8----3---3----3----10---2----2----3----3----2----5---|
E]--------6-------------3----8----3----0----1----1----3----3---|


 INTRO:
    E5        F5        G5
e]---------------------------------------|
B]---------------------------------------|
G]---------------------------------------|
D]--2-2-2-22--3-3-3-33--5-5-5-5-5-5-5-5--| (x5)
A]--2-2-2-22--3-3-3-33--5-5-5-5-5-5-5-5--|
E]--0-0-0-00--1-1-1-11--3-3-3-3-3-3-3-3--|

    E5    F5    G5
e]---------------------------------|
B]---------------------------------|
G]---------------------------------|
D]--2-2-2-22--3-3-3-33--5-5-5-5-5--|
A]--2-2-2-22--3-3-3-33--5-5-5-5-5--|
E]--0-0-0-00--1-1-1-11--3-3-3-3-3--|

 E5               F5                  G5
Ever since first man has walked this Earth I have been here 
     E5              F5              G5
To whisper seeds of doubt and evil thoughts into his ear
  E5                F5             G5
I am the beast, the outcast angel fallen from on high
  E5          F5                G5
I go by many names but there is one you can't deny...


 PRE-VERSE:
    C/G
e]----0---0---0---0--|
B]----1---1---1---1--|
G]----0---0---0---0--|
D]-------------------| (x9)
A]--3-------3--------|
E]------3-------3----|

N/C         C/G
My name is Satan! Hi everybody! Uhh, let me tell you a little about myself...


 VERSE 1:
    C               C7
e]----0---0---0---0---0---0---0---0--|
B]----1---1---1---1---1---1---1---1--|
G]----0---0---0---0---3---3---3---3--|
D]-----------------------------------|
A]--3---3---3---3---3---3---3---3----|
E]-----------------------------------|

    F               C   C/G
e]----1---1---1---1---0---0---0---0---0---0---0---0--|
B]----1---1---1---1---1---1---1---1---1---1---1---1--|
G]----2---2---2---2---3---0---0---0---0---0---0---0--|
D]--3-------3----------------------------------------|
A]------3-------3---3-------3-------3---3---3---3----|
E]----------------------3-------3--------------------|

      C                                  C7
My friends all call me Old Scratch and I am a Capricorn
   F                                C      C/G
My turn-ons are romantic walks and killing the unborn....


 CHORUS 1:
    G         F 
e]----3---3---1---1--|
B]----0---0---1---1--|
G]----0---0---2---2--|
D]----------3---3----| (x3)
A]------2------------|
E]--3----------------|

          G                         F 
I've got little devil horns, and a little Goatee
 G                           F 
Little devil eyes to help a little devil see
 G                                F 
Little cloven hoofs that make it kinda hard to ski


 INTERLUDE:
    C  C/G
e]----0---0---0---0--|
B]----1---1---1---1--|
G]----0---0---0---0--|
D]-------------------| (x5)
A]--3-------3--------|
E]------3-------3----|

     C  C/G
I'm Satan, Woo-Hoo!... Mephistopheles for some, I don't know!


 VERSE 2:
    C               C7
e]----0---0---0---0---0---0---0---0--|
B]----1---1---1---1---1---1---1---1--|
G]----0---0---0---0---3---3---3---3--|
D]-----------------------------------|
A]--3---3---3---3---3---3---3---3----|
E]-----------------------------------|

    F               C   C/G
e]----1---1---1---1---0---0---0---0---0---0---0---0--|
B]----1---1---1---1---1---1---1---1---1---1---1---1--|
G]----2---2---2---2---3---0---0---0---0---0---0---0--|
D]--3-------3----------------------------------------|
A]------3-------3---3-------3-------3---3---3---3----|
E]----------------------3-------3--------------------|

    C                           C7
My real name is Beelzebub, but you can call be Beelz
   F                                   C        C/G
I love to watch Fox News and then go club some baby seals...


 CHORUS 2:
    G         F
e]----3---3---1---1--|
B]----0---0---1---1--|
G]----0---0---2---2--|
D]----------3---3----| (x2)
A]-------------------|
E]--3---3------------|

    G                     F
e]-------3~~~------------------1~~~--|
B]------0~~~------------------1~~~---|
G]-----0~~~------------------3~~~----|
D]----0~~~------------------2~~~-----|
A]---2~~~------------------2~~~------|
E]--3~~~------------------1~~~-------|

           G                       F 
Then I'll take a bubble bath and drink a zinfandel
 G                    F
Try to wash off that baby seal smell
      G                               F
And then I'll make a toast to me: Hey... here's to my hell


 INTERLUDE:
    C  C/G
e]----0---0---0---0--|
B]----1---1---1---1--|
G]----0---0---0---0--|
D]-------------------| (x3)
A]--3-------3--------|
E]------3-------3----|

            C  C/G
My name is Satan.... Eh-Hee!


 BRIDGE:
    Am              G                 Am              F
e]----0---0---0---0---3---3---3---3-|---0---0---0---0---1---1--|
B]----1---1---1---1---0---0---0---0-|---1---1---1---1---1---1--|
G]----2---2---2---2---0---0---0---0-|---2---2---2---2---2---2--|
D]----------------------------------|-----------------3---3----|
A]--0---0---0---0-------2-------2---|-0---0---0---0------------|
E]------------------3-------3-------|--------------------------|

    G              C9
e]--------3-----3--------0---------------------------------------|
B]------0---0---0------1---1--------1-1-1-1-1-1-1-1-111-1-1-1-1--|
G]----0-------0-0----0-------0---0--0-0-0-0-0-0-0-0-000-0-0-0-0--|
D]--------------0--------------0----0-0-0-0-0-0-0-0-000-0-0-0-0--|
A]--------------2-------------------2-2-2-2-2-2-2-2-222-2-2-2-2--|
E]--3-----------3--3----------------3-3-3-3-3-3-3-3-333-3-3-3-3--|

    Am                      G
To carry on my evil ways I went and had a son
     Am                           F            G  C
And now he makes his living as a singing comedian...


 VERSE 3:
    C   C/G         C7
e]----0---0---0---0---0---0---0---0--|
B]----1---1---1---1---1---1---1---1--|
G]----0---0---0---0---3---3---3---3--|
D]-----------------------------------|
A]--3-------3-------3---3---3---3----|
E]------3-------3--------------------|

    F               C   C/G
e]----1---1---1---1---0---0---0---0---0---0---0---0--|
B]----1---1---1---1---1---1---1---1---1---1---1---1--|
G]----2---2---2---2---3---0---0---0---0---0---0---0--|
D]--3-------3----------------------------------------|
A]------3-------3---3-------3-------3-------3--------|
E]----------------------3-------3-------3-------3----|

N/C    C  C/G                       C7
I'm in every Zeppelin album, I'm in all Rush Limbaugh's rants 
         F                             C    C/G
I'm the reason that the Boston Red Sox even had a chance....


 INTERLUDE:
    C  C/G
e]----0---0---0---0--|
B]----1---1---1---1--|
G]----0---0---0---0--|
D]-------------------| (x2)
A]--3-------3--------|
E]------3-------3----|


 CHORUS 3:
    G         F 
e]----3---3---1---1--|
B]----0---0---1---1--|
G]----0---0---2---2--|
D]----------3---3----| (x3)
A]------2------------|
E]--3----------------|

    C       G5  A#5
e]----0-00----------|
B]----1-11----------|
G]----0-00----------|
D]------22---5---8--|
A]--3---33---5---8--|
E]-----------3---6--|

          G                                 F
And if I want to eat your soul, I'll just throw it on a griddle
       G                            F
Don't need to make a deal, I don't need to tell a riddle 
     G                             F
And fuck Charlie Daniels, I don't care if he can fiddle
     C     G5  A#5
I'm Satan!........


 BRIDGE 2:
    C5     X                G5  A#5  C5
e]------------x----x-----x---x---x---x---|
B]------------x----x-----x---x---x---x---|
G]------------x----x-----x---x---x---x---|
D]--10-10--xxxx-xxxx-xx-xx---5---8---10--|
A]--10-10--xxxx-xxxx-xx-xx---5---8---10--|
E]--8--8---xxxx-xxxx-xx-xx---3---6---8---|

 C5         X                                                  G5  A#5  C5
Devil went down to Georgia, he was looking for a soul to steal...
N/C
This is fucking bullshit, because I would not be caught dead in Georgia!
N/C
Okay, it's like.. oh my God!


 OUTRO:
    F    G    C
e]--111--333--0-0-0--|
B]--111--000--1-1-1--|
G]--333--000--0-0-0--|
D]--222--000--2-2-2--|
A]--222--222--3-3-3--|
E]--111--333--0-0-0--|

F     G     C
............666!




××××××××××××××××××××××××××××××××××××××××××××××××××××××××××××××××××××××××××××××××
7.                                A l b i n o
××××××××××××××××××××××××××××××××××××××××××××××××××××××××××××××××××××××××××××××××

Tabbed by Jordan Lapping

Standard E Tuning


 CHORDS USED:
     Am   C  Cadd9  Cm   D   Em7   G  Gmaj9
e]---0----0----0----3----2----3----3----3---|
B]---1----1----1----4----3----3----0----3---|
G]---2----0----0----5----2----0----0----0---|
D]---2----2----0----5----0----2----0----0---|
A]---0----3----2----3---------2----2----0---|
E]----------------------------0----3----2---|


 INTRO:
    G      A7sus4  G        C9   G              A7sus4  G         C9   G
e]--3-3-333/5555\3-33-3-333-0000-3--|------3-333/5555\3-----3-333-0000-3--|
B]--3-3-333/5555\3-33-3-333\1111/3--|------3-333/5555\3-----3-333\1111/3--|
G]--0-0-000-0000-0-00-0-000-0000-0--|------0-000-0000-0-----0-000-0000-0--|
D]--0-0-000-0000-0-00-0-000-0000-0--|------0-000-0000-0-----0-000-0000-0--|
A]--2-----------------2-------------|----2-2--------------2-2-------------|
E]--3-----------------3-------------|--3---3------------3---3-------------|


 VERSE 1:
    G          Gadd9      Am        Cadd9 C
e]-----3-3333-----3-3333--0-000---0---0---0~-00000000000--|
B]-----3-3333-----3-3333--1-111---1---1---1~-11111111111--|
G]-----0-0000-----0-0000--2-222---2---0---0~-00000000000--|
D]-----0-0000-----0-0000--2-222---2---0---2~-22202202222--|
A]--2~-2-2222--0~-0-0000--0-000---0---2---3~-33333333333--|
E]--3~---------2~---------------------0-------------------|

    G          Gadd9      Am         Cadd9 C
e]-----3-3333-----3-3333--0-0000000--0000--0-00-000000000--|
B]-----3-3333-----3-3333--1-1111111--1111--1-11-111111111--|
G]-----0-0000-----0-0000--2-2222222--0000--0-00-000000000--|
D]-----0-0000-----0-0000--2-2222222--0000--2-22-202202222--|
A]--2~-2-2222--0~-0-0000--0-0000000--2222--3-33-333333333--|
E]--3~---------2~--------------------0000------------------|

G        Gadd9                     Am                    Cadd9 C
I was in love with an albino, her lack of pigment seemed like fun
 G              Gadd9                  Am                     Cadd9   C
Her skin, the whitest Alabaster, her eyes as pink, as pink as bubble gum 


 PRE-INTERLUDE:
    Cm       G        Cm           G        Gadd9    Em7        D
e]--3-33333--3-33333--3-3333-3--|------333------333------3-333--22222222--|
B]--4-44444--0-00000--4-4444-4--|------333------333------3-333--33333333--|
G]--5-55555--0-00000--5-5555-5--|------000------000------0-000--22222222--|
D]--5-55555--0-00000--5-5555-5--|------000------000------2-222--00000000--|
A]--3-33333--2-22222--3-3333-3--|----2-222----0-000----2-2-222------------|
E]--------3--3-----3---------3--|--3-3------2-2------0-0------------------|

 Cm               G
Then one day it snowed real hard
 Cm           G     Gadd9  Em7  D
And she disappeared...


 INTERLUDE:
    G      A7sus4  G       C9   G            A7sus4  G       C9   G
e]----3-333/5555\3-3-3-333-0000-3--|--3-3-333/5555\3-3-3-333-0000-3--|
B]----3-333/5555\3-3-3-333\1111/3--|--3-3-333/5555\3-3-3-333\1111/3--|
G]----0-000-0000-0-0-0-000-0000-0--|--0-0-000-0000-0-0-0-000-0000-0--|
D]----0-000-0000-0-0-0-000-0000-0--|--0-0-000-0000-0-0-0-000-0000-0--|
A]-------------------2-------------|----2--------------2-------------|
E]--3~---------------3-------------|----3--------------3-------------|


 VERSE 2:
    G          Gadd9      Am        Cadd9 C
e]-----3-3333-----3-3333--0-000---0---0---0~-00000000000--|
B]-----3-3333-----3-3333--1-111---1---1---1~-11111111111--|
G]-----0-0000-----0-0000--2-222---2---0---0~-00000000000--|
D]-----0-0000-----0-0000--2-222---2---0---2~-22202202222--| (x2)
A]--2~-2-2222--0~-0-0000--0-000---0---2---3~-33333333333--|
E]--3~---------2~---------------------0-------------------|

G        Gadd9                   Am                Cadd9  C
I loved little Agnus Johnson, I met her at the old folks home 
 G            Gadd9                          Am                   Cadd9 C
She'd call me up and say "Hey Stephen, come give old Mother Hubbard a bone..."


 OUTRO:
    Cm       G        Cm         G        Gadd9    Em7        D         G
e]--3-33333--3-33333--3-333-33-|-----333------333------3-333--22222222-------3~~-|
B]--4-44444--0-00000--4-444-44-|-----333------333------3-333--33333333------3~~--|
G]--5-55555--0-00000--5-555-55-|-----000------000------0-000--22222222-----0-~~--|
D]--5-55555--0-00000--5-555-55-|-----000------000------2-222--00000000----0~~----|
A]--3-33333--2-22222--3-333-33-|---2-222----0-000----2-2-222-------------2~~-----|
E]--------3--3-----3---------3-|-3-3------2-2------0-0------------------3~~~-----|

 Cm              G
Then one day her EKG went
Cm            G    Gadd9    Em7    D   G
Beep, beep... beeeeeeeeeeeeeeeeeeeep...




××××××××××××××××××××××××××××××××××××××××××××××××××××××××××××××××××××××××××××××××
8.                     M i x e r   A t   D e l t a   C h i
××××××××××××××××××××××××××××××××××××××××××××××××××××××××××××××××××××××××××××××××

Tabbed by Jordan Lapping

Standard E Tuning


 CHORDS USED:
     A   A#5   C    F5   G5  G#5
e]---x---------x------------------|
B]---2---------5------------------|
G]---2---------5------------------|
D]---2----8----5----3----5----6---|
A]---0----8----3----3----5----6---|
E]--------6---------1----3----4---|


 INTRO:
    C     A     C     A     C     A     F5    G#5  
e]--x-xx--xxxx--x-xx--xxxx--x-xx--xxxx--------------|
B]--5-55--2222--5-55--2222--5-55--2222--------------|
G]--5-55--2222--5-55--2222--5-55--2222--------------|
D]--5-55--2222--5-55--2222--5-55--2222--3-33--6666--|
A]--3-33--0000--3-33--0000--3-33--0000--3-33--6666--|
E]--------------------------------------1-11--4444--|


 VERSE 1:
    C     A     C     A     C     A     F5    G#5  
e]--x-xx--xxxx--x-xx--xxxx--x-xx--xxxx--------------|
B]--5-55--2222--5-55--2222--5-55--2222--------------|
G]--5-55--2222--5-55--2222--5-55--2222--------------|
D]--5-55--2222--5-55--2222--5-55--2222--3-33--6666--| (x2)
A]--3-33--0000--3-33--0000--3-33--0000--3-33--6666--|
E]--------------------------------------1-11--4444--|

 C            A           C          A
It's College time again, September's almost here
 C             A            F5           G#5
Hanging with freshmen girls, frat party kegs of beer
C        A                 C        A
I see a girl I'm wanting, mixer at Delta Chi
C            A         F5               G#5
We take some oxycontin; Dave Matthew's gettin' high


 PRE-CHORUS 1:
    G5        F5        G5        F5        G5        F5
e]-------------------------------------------------------|
B]-------------------------------------------------------|
G]-------------------------------------------------------|
D]--55555555--33333333--55555555--33333333--55555555--3--|
A]--55555555--33333333--55555555--33333333--55555555--3--|
E]--33333333--11111111--33333333--11111111--33333333--1--|

    G5        G#5   A#5    C     A
e]-------------------------x-xx--xxxx--|
B]-------------------------5-55--2222--|
G]-------------------------5-55--2222--|
D]--55555555--6666--8888---5-55--2222--|
A]--55555555--6666--8888---3-33--0000--|
E]--33333333--4444--6666---------------|

G5         F5             G5              F5
And then as I undress her, and start my stimulus
G5              F5   N/C
She says, "But wait, Professor,
 G5         G#5     A#5  C    A
This wasn't on the syllabus?"...


 CHORUS 1:
    C    A    C     A     C     A     C     A     C     A     C     A
e]--xxx--0-0--x-xx--xxxx--x-xx--x-xx--x-xx--xxxx--x-xx--x-xx--x-xx--xxxx--|
B]--555--2-2--5-55--2222--5-55--2-22--5-55--2222--5-55--2-22--5-55--2222--|
G]--555--2-2--5-55--2222--5-55--2-22--5-55--2222--5-55--2-22--5-55--2222--|
D]--555--2-2--5-55--2222--5-55--2-22--5-55--2222--5-55--2-22--5-55--2222--|
A]--333--0-0--3-33--0000--3-33--0-00--3-33--0000--3-33--0-00--3-33--0000--|
E]------------------------------------------------------------------------|

    C    G#5 G5
e]--x-xx--------|
B]--5-55--------|
G]--5-55--------|
D]--5-55--6--5--|
A]--3-33--6--5--|
E]--------4--3--|

C        A      C     A
I'm the bad professor
C        A      C     A
I'm the bad professor!
C          A       C     A
A tenured titty caresser
C     G#5   G5
I'm a bad, bad man


 INTERLUDE:
    C     A     C    A
e]--x-xx--xxxx--xxx--xxxx--|
B]--5-55--2222--555--2222--|
G]--5-55--2222--555--2222--|
D]--5-55--2222--555--2222--| (x2)
A]--3-33--0000--333--0000--|
E]-------------------------|


 VERSE 2:
    C     A     C     A     C     A     F5    G#5  
e]--x-xx--xxxx--x-xx--xxxx--x-xx--xxxx--------------|
B]--5-55--2222--5-55--2222--5-55--2222--------------|
G]--5-55--2222--5-55--2222--5-55--2222--------------|
D]--5-55--2222--5-55--2222--5-55--2222--3-33--6666--| (x2)
A]--3-33--0000--3-33--0000--3-33--0000--3-33--6666--|
E]--------------------------------------1-11--4444--|

 C            A             C         A
Tutor her at my apartment, turns into a slow dance
  C          A                 F5           G#5
"Hey baby, what's your minor? Got your majorin' my pants"
C            A            C           A
I love her student body, she wants a better grade
C           A            F5               G#5         G5
I say, "If you roll over I'll throw in Financial Aid"...


 INTERLUDE:
    G5
e]-------------------------|
B]-------------------------|
G]-------------------------|
D]--55555555555-5555-5555--|
A]--55555555555-5555-5555--|
E]--33333333333-3333-3333--|


 PRE-CHORUS 2:
    G5        F5        G5        F5        G5        F5        G5
e]-----------------------------------------------------------------|
B]-----------------------------------------------------------------|
G]-----------------------------------------------------------------|
D]--5-5-5555--3-3-3333--55555555--33333333--55555555--33333333--5--|
A]--5-5-5555--3-3-3333--55555555--33333333--55555555--33333333--5--|
E]--3-3-3333--1-1-1111--33333333--11111111--33333333--11111111--3--|

    G#5  A#5  C     A
e]------------x-xx--xxxx--|
B]------------5-55--2222--|
G]------------5-55--2222--|
D]--6-6--8-8--5-55--2222--|
A]--6-6--8-8--3-33--0000--|
E]--4-4--6-6--------------|

G5                       F5
"I hope you've boned up for your midterm
G5                  F5
If you want, I can help you cram
 G5            F5                  G5
Don't give a shit about the essay-test
                     G#5        A#5    C    A
So let's skip it and get to the oral exam!"...



 CHORUS 2/OUTRO:
    C    A     C     A    C     A    C     A    C     A    C     A
e]--xxx--xxxx--x-xx--x-x--xxxx--x-x--xxxx--xxx--x-xx--x-x--x-xx--xxxx--|
B]--555--2222--5-55--2-2--5555--2-2--5555--222--5-55--2-2--5-55--2222--|
G]--555--2222--5-55--2-2--5555--2-2--5555--222--5-55--2-2--5-55--2222--|
D]--555--2222--5-55--2-2--5555--2-2--5555--222--5-55--2-2--5-55--2222--|
A]--333--0000--3-33--0-0--3333--0-0--3333--000--3-33--0-0--3-33--0000--|
E]---------------------------------------------------------------------|

    C   G#5 G5  C
e]--xxx---------x--|
B]--555---------5--|
G]--555---------5--|
D]--555--6--5~--5--|
A]--333--6--5~--3--|
E]-------4--3~-----|

C        A      C     A
I'm the bad professor,
C        A      C     A
I'm the bad professor!
 C           A        C     A
Your money's on the dresser
 C    G#5   G5     C
I'm a bad, bad... man!




××××××××××××××××××××××××××××××××××××××××××××××××××××××××××××××××××××××××××××××××
9.                   L i t t l e   T i n y   M u s t a c h e
××××××××××××××××××××××××××××××××××××××××××××××××××××××××××××××××××××××××××××××××

Tabbed by Jordan Lapping

Standard E Tuning, Capo 3rd Fret [All tabs relative to Capo]


 CHORDS USED:
     A    Bm   C    C6   D    G  Gsus2  G6
e]---0----2----0----0----2----3----3----3---|
B]---2----3----1----1----3----0----3----3---|
G]---2----4----0----0----2----0----0----0---|
D]---2----4----2----2----0----0----0----2---|
A]---0----2----3----0---------2----0----2---|
E]----------------------------3---------0---|


 INTRO:
   G5              Gmaj9            A7sus4          Gmaj9
e|-------------------------------------------------------------------|
B|-------------------------------------------------------------------|
G|-----0-------0--------0-------0-------0-------0-------0-------0----|
D|---0---0---0---0----0---0---0---0---0---0---0---0---0---0---0---0--| (x2)
A|-------------------------------------------------------------------|
E|-3-------3-------2--------2-------0-------0-------2-------2--------|


 VERSE 1:
   G5              Gmaj9            A7sus4          Gmaj9
e|-------------------------------------------------------------------|
B|-------------------------------------------------------------------|
G|-----0-------0--------0-------0-------0-------0-------0-------0----|
D|---0---0---0---0----0---0---0---0---0---0---0---0---0---0---0---0--| (x4)
A|-------------------------------------------------------------------|
E|-3-------3-------2--------2-------0-------0-------2-------2--------|

            G5                   Gmaj9
You're the love of my life but it cuts like my knife
     A7sus4                  Gmaj9
And I feel that I'm being misled
           G5                       Gmaj9
See I'm a little concerned for I've recently learned
        A7sus4                 Gmaj9
Of the Swastika tattoo on your head
        G5                      Gmaj9
And it makes you smile when you hear "Sieg-Heil" 
             A7sus4             Gmaj9
You love the smell of a burning cross in the yard 
        G5                        Gmaj9
You do goose step salutes in your Doc Martin boots
        A7sus4                     Gmaj9
And you quoted "Mein Kampf" in our fifth anniversary card...


 CHORUS 1:
   G               G7               G6              G7
e|-------------------------------------------------------------------|
B|-----0-------0--------0-------0-------0-------0-------0-------0----|
G|---0---0---0---0----0---0---0---0---0---0---0---0---0---0---0---0--|
D|-------------------------------------------------------------------| (x2)
A|-------------------------------------------------------------------|
E|-3-------3-------1--------1-------0-------0-------1-------1--------|

G       G7                G6       G7
........I think you're a Nazi baby
           G       G7
Are you a Nazi?
                G6       G7
You might be a Nazi baby...


 VERSE 2:
    G        Gsus2    G6       D
e|--333-333--333-333--333-333--222-222--|
B|--333-333--333-333--333-333--333-333--|
G|--000-000--000-000--000-000--222-222--|
D|--000-000--000-000--222-222--000-000--|
A|--222-222--000-000--222-222-----------|
E|--333-333-----------000-000-----------|

            G                    Gsus2
You keep extensive files on the Nürnberg Trials
         G6                          D
And you watch them whenever they're airing
        G                           Gsus2
I guess I should've known when you bought a new bone
          G6                        D
For your puppies named Göbbles and Göring
      G                   Gsus2
You showed up late to our very first date
         G6                             D
I said "How are you?", you said "White Power!" 
         G               Gsus2
Call me paranoid but I'm not overjoyed
         G6                    D
When you ask me if I want to shower...


 CHORUS 2:
   G               G7               G6              G7
e|-------------------------------------------------------------------|
B|-----0-------0--------0-------0-------0-------0-------0-------0----|
G|---0---0---0---0----0---0---0---0---0---0---0---0---0---0---0---0--|
D|-------------------------------------------------------------------| (x2)
A|-------------------------------------------------------------------|
E|-3-------3-------1--------1-------0-------0-------1-------1--------|

                  G        G7
I think you're a Nazi
          G6          G7
Don't be lyin' baby
           G         G7
Are you a Nazi?
              G6         G7
Are you Anti-Zion baby?...


 VERSE 3:
    G        Gsus2    G6       D
e|--333-333--333-333--333-333--222-222--|
B|--333-333--333-333--333-333--333-333--|
G|--000-000--000-000--000-000--222-222--|
D|--000-000--000-000--222-222--000-000--|
A|--222-222--000-000--222-222-----------|
E|--333-333-----------000-000-----------|

     G                    Gsus2
Your every dress is monogrammed "SS"
            G6                D
You hold an Aryan picnic and bash 
        G                      Gsus2
And it makes me irate when you say I look great 
        G6                    D
When I wear a litle tiny moustache
      G                       Gsus2
Your social politics say that races don't mix
         G6                    D
And you call it pure blood pollution
        G                          Gsus2
And whenever I'm sad, you say "It's not so bad,
            G6                        D
for every problem there's a 'Final Solution'..."


 CHORUS 3:
   G               G7               G6              G7
e|-------------------------------------------------------------------|
B|-----0-------0--------0-------0-------0-------0-------0-------0----|
G|---0---0---0---0----0---0---0---0---0---0---0---0---0---0---0---0--|
D|-------------------------------------------------------------------| (x2)
A|-------------------------------------------------------------------|
E|-3-------3-------1--------1-------0-------0-------1-------1--------|

                  G        G7
I think you're a Nazi
           G6          G7
Give me an answer baby
           G         G7
Are you a Nazi?
                     G6         G7
You drive a fucking panzer baby...


 BRIDGE:
    Bm       C        Bm       C
e|--222-222--000-000--222-222--00-0-000--|
B|--333-333--111-111--333-333--11-1-111--|
G|--444-444--000-000--444-444--00-0-000--|
D|--444-444--222-222--444-444--22h0p222--|
A|--222-222--333-333--222-222--33-3-333--|
E|---------------------------------------|

    Bm       C        C6       D
e|--222-222--000-000--000-000--0~~~--|
B|--333-333--111-111--111-111--3~~~--|
G|--444-444--000-000--000-000--2~~~--|
D|--444-444--222-222--222-222--0~~~--|
A|--222-222--333-333--000-000--------|
E|------------------------------------|

Bm             C                 Bm               C  Cadd9  C
You say that 'love is blind' so how could I have guessed?
      Bm          C      C6             D     
But then again I met you at the Wagner Fest...


 OUTRO:
   G               G7               G6              G7
e|-------------------------------------------------------------------|
B|-----0-------0--------0-------0-------0-------0-------0-------0----|
G|---0---0---0---0----0---0---0---0---0---0---0---0---0---0---0---0--|
D|-------------------------------------------------------------------|
A|-------------------------------------------------------------------|
E|-3-------3-------1--------1-------0-------0-------1-------1--------|

   G               G7               G6              Emmaj7
e|-------------------------------------------------------------------|
B|-----0-------0--------0-------0-------0-------0-------0-------0----|
G|---0---0---0---0----0---0---0---0---0---0---0---0---0---0---0---0--|
D|--------------------------------------------------1-------1--------|
A|-------------------------------------------------------------------|
E|-3-------3-------1--------1-------0-------0------------------------|

   G
e|------3~~~~----3--|
B|-----3~~~~-----3--|
G|----0~~~~------0--|
D|---0~~~~-------0--|
A|--2~~~~--------2--|
E|-3~~~~---------3--|

                  G        G7
I know you're a Nazi
           G6              G7
And that's why I'm leavin'
                  G        G7
I know you're a Nazi
            G6                Emmaj7       G
Sure as my name is Stephen... Lynch Berg-Stein




××××××××××××××××××××××××××××××××××××××××××××××××××××××××××××××××××××××××××××××××
10.                               P i e r r e
××××××××××××××××××××××××××××××××××××××××××××××××××××××××××××××××××××××××××××××××

Tabbed by Jordan Lapping

Standard E Tuning


 CHORDS USED:
     Am   Dm   E    F    G
e]---0----1----0----1----3---|
B]---1----3----0----1----0---|
G]---2----2----1----2----0---|
D]---2----0----2----3----0---|
A]---0---------2----3----2---|
E]-------------0----1----3---|


 INTRO:
    Am     E        E       Am      F       C        E       Am
e]------0~------0-|------0~-----0-|------1~-----0~-|------0~-----0--|
B]-----1~------0--|-----0~-----1--|-----1------1~--|-----0~-----1---|
G]----2~------1---|----1~-----2---|----2------0~---|----1~-----2----|
D]---2~------2----|---2~-----2----|---3------2~----|---2~-----2-----|
A]--0~------2-----|--2~-----0-----|--3------3~-----|--2~-----0------|
E]---------0------|-0~------------|-1--------------|-0~-------------|

     Am             E
My story is so tiresome (Tiresome!)
          E                         Am
Back in France, I was rich as they come (As they come!)
       F                          C
But I lost all my wealth, and my good mental health
       E                         Am
Now I live with ze filth and ze scum (...And ze scum!)
 

 CHORUS:
    Dm          C      G
e]--1111111111--00000--33333--|
B]--3333333333--11111--00000--|
G]--2222222222--00000--00000--|
D]--0000000000--22222--00000--|
A]--0000000000--33333--22222--|
E]---------------------33333--|

    F      E      Am
e]--11111--00000--000000--|
B]--11111--00000--111111--|
G]--22222--11111--222222--|
D]--33333--22222--222222--|
A]--33333--22222--000000--|
E]--11111--00000----------|

      Dm                    C          G
I'm Pierre, ze only French bum in New York
        Dm                       C             G
When I open my Boone's Farm, I still sniff ze cork
    Dm                      C             G
So have you a quarter? I'm begging you, please
   F            E            Am
I have to have wine with my Government cheese...


 INTERLUDE:
    Am
e]--000000-00000-00000-00000-00000-00000-00000--|
B]--111111-11111-11111-11111-11111-11111-11111--|
G]--222222-22222-22222-22222-22222-22222-22222--|
D]--222222-22222-22222-22222-22222-22222-22222--|
A]--000000-00000-00000-00000-00000-00000-00000--|
E]----------------------------------------------|


 VERSE 2:
    Am          E     E           Am
e]--0000000000--0--|--0000000000--0--|
B]--1111111111--1--|--0000000000--1--|
G]--2222222222--2--|--1111111111--2--|
D]--2222222222--2--|--2222222222--2--|
A]--0000000000--0--|--2222222222--0--|
E]--------------0--|--0000000000--0--|

    F           C           E           Am
e]--1111111111--0000000000--0000000000--0--|
B]--1111111111--1111111111--0000000000--1--|
G]--2222222222--0000000000--1111111111--2--|
D]--3333333333--2222222222--2222222222--2--|
A]--3333333333--3333333333--2222222222--0--|
E]--1111111111--------------0000000000--0--|

   Am                      E
I really should bid you adieu (Bid adieu!)
     E                   Am
I'm feeling a bit sacré bleu (... Sacré bleu!)
    F                     C         
My life is a hell, I give off a bad smell
          E                            Am
But I'm French, so that's always been true
N/C
Pee-ew!




××××××××××××××××××××××××××××××××××××××××××××××××××××××××××××××××××××××××××××××××
11.                          W h i t t l i n '   M a n
××××××××××××××××××××××××××××××××××××××××××××××××××××××××××××××××××××××××××××××××

Tabbed by Jordan Lapping

Standard E Tuning


 CHORDS USED:
     A    Am   A#   C5   D5   E  Esus4  F    G5
e]---X----0----1---------x----0---------1--------|
B]---2----1----3---------x----0----X----1--------|
G]---2----2----3----5----7----1----2----2--------|
D]---2----2----3----5----5----2----2----3----5---|
A]---0----0----1----3----5----2----2----3----5---|
E]------------------3---------0----0----1----3---|


 INTRO:
    A     Esus4 C5    G5
e]--x-xx--------------------|
B]--2-22--xxxx--------------|
G]--2-22--2222--5-55--------|
D]--2-22--2222--5-55--5555--| (x4)
A]--0-00--2222--3-33--5555--|
E]--------0000--3-33--3333--|


 VERSE 1:
    Am    F     E
e]--0-00--1111--0-000000--|
B]--1-11--1111--0-000000--|
G]--2-22--2222--1-111111--|
D]--2-22--3333--2-222222--| (x7)
A]--0-00--3333--2-222222--|
E]--------1111--0-000000--|

    Am    F     E
e]--0-00--1111--00000000--|
B]--1-11--1111--00000000--|
G]--2-22--2222--11111111--|
D]--2-22--3333--22222222--|
A]--0-00--3333--22222222--|
E]--------1111--00000000--|

Am      F        E             Am      F        E
In the woods of Northern Michigan, he made his home 
Am     F          E                   Am        F   E
Didn't ask much from the world, just wanted to be alone 
Am          F           E                 Am            F      E
He got his first real blade at thirteen; that's when it all began
Am             F       E              Am          F        E
And soon the creatures of the forest called him Whittlin' Man - yeah!



 PRE-CHORUS 1:
    A     Esus4 C5    G5
e]--x-xx--------------------|
B]--2-22--xxxx--------------|
G]--2-22--2222--5-55--------|
D]--2-22--2222--5-55--5555--| (x2)
A]--0-00--2222--3-33--5555--|
E]--------0000--3-33--3333--|

     A                       Esus4
He whittled all day and he whittled all night
     C5                                G5
He whittled, whittled, whittled everything in sight 
     A                          Esus4
He whittled on a stick and he whittled on his shoe
            C5                     G5
And if you come too close, gonna whittle you too


 CHORUS:
    D5       A#       D        A#    C5
e]--x-xxxxx--x-xxxxx--x-xxxxx--x-xx--------|
B]--x-xxxxx--3-33333--x-xxxxx--3-33--------|
G]--7-77777--3-33333--7-77777--3-33--5555--|
D]--7-77777--3-33333--7-77777--3-33--5555--|
A]--5-55555--1-11111--5-55555--1-11--3333--|
E]-----------------------------------3333--|

D5           A#              D5
Keep a safe distance if you can 
                     A#           C5
'Cause you're never safe around Whittlin' Man 


 INTERLUDE:
    A     Esus4 C5    G5
e]--x-xx--------------------|
B]--2-22--xxxx--------------|
G]--2-22--2222--5-55--------|
D]--2-22--2222--5-55--5555--| (x2)
A]--0-00--2222--3-33--5555--|
E]--------0000--3-33--3333--|


 VERSE 2:
    Am    F     E
e]--0-00--1111--0-000000--|
B]--1-11--1111--0-000000--|
G]--2-22--2222--1-111111--|
D]--2-22--3333--2-222222--| (x7)
A]--0-00--3333--2-222222--|
E]--------1111--0-000000--|

    Am    F     E
e]--0-00--1111--00000000--|
B]--1-11--1111--00000000--|
G]--2-22--2222--11111111--|
D]--2-22--3333--22222222--|
A]--0-00--3333--22222222--|
E]--------1111--00000000--|

Am      F       E                Am             F      E
Had a stump to sit on; had some wood, had his trusty knife 
Am        F     E                    Am          F      E
Whittled out a house, a car, and he whittled himself a wife
                   Am
(Such a beautiful wife!)
          F        E                Am         F        E
Whittled out four kids, a swimming pool and a big leer jet
Am         F             E                           Am       F     E
And so he wouldn't miss Saved By The Bell, when he whittled a T.V. set - yeah!


 PRE-CHORUS 2:
    A     Esus4 C5    G5
e]--x-xx--------------------|
B]--2-22--xxxx--------------|
G]--2-22--2222--5-55--------|
D]--2-22--2222--5-55--5555--| (x2)
A]--0-00--2222--3-33--5555--|
E]--------0000--3-33--3333--|

       A                              Esus4
He'd whittle if its light, and he'd whittle if its dark 
        C5                          G5
And if Noah was around, well he'd whittle him an ark
       A                              Esus4
He'd whittle something new and he'd whittle something old
       C5                             G5
He'd whittle something hot and he'd whittle something rather chilly 


 CHORUS:
    D5       A#       D        A#    C5
e]--x-xxxxx--x-xxxxx--x-xxxxx--x-xx--------|
B]--x-xxxxx--3-33333--x-xxxxx--3-33--------|
G]--7-77777--3-33333--7-77777--3-33--5555--|
D]--7-77777--3-33333--7-77777--3-33--5555--|
A]--5-55555--1-11111--5-55555--1-11--3333--|
E]-----------------------------------3333--|

D5           A#              D5
Keep a safe distance if you can 
                     A#           C5
'Cause you're never safe around Whittlin' Man 


 INTERLUDE:
    A     Esus4 C5    G5     A     Esus4 C5    G5
e]--x-xx-------------------|-xxxx-------------------|
B]--2-22--xxxx-------------|-2222--xxxx-------------|
G]--2-22--2222--5555-------|-2222--2222--5555-------|
D]--2-22--2222--5555--5555-|-2222--2222--5555--5555-|
A]--0-00--2222--3333--5555-|-0000--2222--3333--5555-|
E]--------0000--3333--3333-|-------0000--3333--3333-|


 BRIDGE:
    Am   F    E
e]----0----1--------0~------|
B]----1----1------0----0----|
G]----2----2----1--------1--|
D]-------3------------------| (x3)
A]--0-----------------------|
E]------------0-------------|

    Am   F    E
e]----0----1------0----000--|
B]----1----1--------0--000--|
G]----2----2----1------111--|
D]-------3-------------222--|
A]--0------------------222--|
E]------------0--------000--|

    Am    F     E
e]--0000--1111--00000000--|
B]--1111--1111--00000000--|
G]--2222--2222--11111111--|
D]--2222--3333--22222222--| (x4)
A]--0000--3333--22222222--|
E]--------1111--00000000--|

 Am          F       E                      Am          F         E
Some say "Whittlin' Man's a genius", still others say "He's just dumb"
Am          F      E                   Am          F         E
He whittled off a foot, an ear, three fingers and his left thumb
                Am                F        E
... Boy, is he dumb! That won't stop him, no it won't
        Am              F         E
He'll whittle through thick and thin
 Am             F        E                      Am       F     E
And once he's whittled everything, he'll just whittle it all again - yeah!


 OUTRO:
    A     Esus4 C5    G5
e]--x-xx--------------------|
B]--2-22--xxxx--------------|
G]--2-22--2222--5-55--------|
D]--2-22--2222--5-55--5555--| (x5)
A]--0-00--2222--3-33--5555--|
E]--------0000--3-33--3333--|

    A     Esus4 C5    G5    A
e]--x-xx--------------------x-----|
B]--2-22--xxxx--------------2~~~--|
G]--2-22--2222--5-55--------2~~~--|
D]--2-22--2222--5-55--5555--2~~~--|
A]--0-00--2222--3-33--5555--0~~~--|
E]--------0000--3-33--3333--------|

       A                               Esus4
He'd whittle if it's white, and he'd whittle if it's black
           C5                        G5
And he'd whittle on a duck 'til the duck can't quack
       A                             Esus4
He'd whittle if it's dry, and he'd whittle if it's juicy
  C5                      G5
Whittled on Desi and he whittled on Lucy
  A                   Esus4
Whittled JFK and he whittled Jackie O
  C5                    G5
Whittled old Larry and Curly and Moe
         A                           Esus4
And he whittled Frank Zappa and he whittled Tipper Gore
  C5                               G5
Whittle, whittle, whittle 'til he can't no more
  A                       Esus4
Whittled Shamu and he'd whittle on Jaws
  C5                               G5
Whittled the Easter Bunny and he whittled Santa Claus
        A                            Esus4
He'll whittle, whittle, whittle just fast as he can
  C5                         G5            A
Whittle till he's dead; he's... Whittlin' Man




××××××××××××××××××××××××××××××××××××××××××××××××××××××××××××××××××××××××××××××××
12.                     C l a s s i c   R o c k   S o n g
××××××××××××××××××××××××××××××××××××××××××××××××××××××××××××××××××××××××××××××××

Tabbed by Jordan Lapping

Standard E Tuning


 CHORDS USED:
     A    D    E
e]---0----2----0---|
B]---2----3----0---|
G]---2----2----1---|
D]---2----0----2---|
A]---0---------2---|
E]-------------0---|


 INTRO:
    E        D     A        D
e]--0-0-000--2222--0-0-000--2222--|
B]--0-0-000--3333--2-2-222--3333--|
G]--1-1-111--2222--2-2-222--2222--|
D]--2-2-222--0000--2-2-222--0000--| (x2)
A]--2-2-222--------0-0-000--------|
E]--0-0-000-----------------------|


 VERSE 1:
    E       D     A       D
e]--0-0-00--2222--0-0-00--2222--|
B]--0-0-00--3333--2-2-22--3333--|
G]--1-1-11--2222--2-2-22--2222--|
D]--2-2-22--0000--2-2-22--0000--| (x4)
A]--2-2-22--------0-0-00--------|
E]--0-0-00----------------------|

    E       D     A
e]--0-0-00--2222--0-0-0-0-0--xxxxxx--|
B]--0-0-00--3333--2-2-2-2-2--xxxxxx--|
G]--1-1-11--2222--2-2-2-2-2--xxxxxx--|
D]--2-2-22--0000--2-2-2-2-2--xxxxxx--|
A]--2-2-22--------0-0-0-0-0--xxxxxx--|
E]--0-0-00-------------------xxxxxx--|

 E                  D             A                    D
Get home late from work tonight, baby my body's achin'
 E                         D                   A                        D
Can't stop thinkin' about you and me, and the love that we'll be makin'
       E                            D
So I chill the champagne, light a candle or two
  A                                    D
(Baby, all the things that I'll do to you)
   E                    D                A
I love you so much, my little heart is breakin'


 CHORUS 1:
    E       D       A          D
e]--0-0-00--2-2-22--0~~-0-000--2222--|
B]--0-0-00--3-3-33--2~~-2-222--3333--|
G]--1-1-11--2-2-22--2~~-2-222--2222--|
D]--2-2-22--0-0-00--2~~-2-222--0000--| (x3)
A]--2-2-22----------0~~-0-000--------|
E]--0-0-00---------------------------|

    E       D       A
e]--0-0-00--2-2-22--0~~~--|
B]--0-0-00--3-3-33--2~~~--|
G]--1-1-11--2-2-22--2~~~--|
D]--2-2-22--0-0-00--2~~~--|
A]--2-2-22----------0~~~--|
E]--0-0-00----------------|

    E       D     A       D
e]--0-0-00--2222--0-0-00--2222--|
B]--0-0-00--3333--2-2-22--3333--|
G]--1-1-11--2222--2-2-22--2222--|
D]--2-2-22--0000--2-2-22--0000--| (x2)
A]--2-2-22--------0-0-00--------|
E]--0-0-00----------------------|

            E  D  A 
Let's make lo-o-o-ove
          D          E  D  A
Oh baby, let's make lo-o-o-ove
                     D       E  D  A
You're body fits me like a glo-o-o-ove
          D          E  D  A
So baby, let's make lo-o-o-ove 
N/C                   E  D      A
(ooh baby, let's make love, oh yeah)
       D          E    D             A      D
(Baby let's make love yeah, yeah, alright)


 VERSE 2:
    E       D     A       D
e]--0-0-00--2222--0-0-00--2222--|
B]--0-0-00--3333--2-2-22--3333--|
G]--1-1-11--2222--2-2-22--2222--|
D]--2-2-22--0000--2-2-22--0000--| (x4)
A]--2-2-22--------0-0-00--------|
E]--0-0-00----------------------|

    E       D       A
e]--0-0-00--2-2-22--0--|
B]--0-0-00--3-3-33--2--|
G]--1-1-11--2-2-22--2--|
D]--2-2-22--0-0-00--2--|
A]--2-2-22----------0--|
E]--0-0-00-------------|

 E           D                A              D
Ain't nobody in the world in love as we are
 E              D                   A                    D
Making love to you is like being inside a shooting star
        E            D
Now I'm in so deep; baby we're groovin'
  A                           D
(Lovin' that way your body's movin')
        E                  D              A
Then I pull it out just a little bit too far


 CHORUS 2:
    E       D       A          D
e]--0-0-00--2-2-22--0~~-0-000--2222--|
B]--0-0-00--3-3-33--2~~-2-222--3333--|
G]--1-1-11--2-2-22--2~~-2-222--2222--|
D]--2-2-22--0-0-00--2~~-2-222--0000--| (x3)
A]--2-2-22----------0~~-0-000--------|
E]--0-0-00---------------------------|

    E       D       A
e]--0-0-00--2-2-22--0~~~--|
B]--0-0-00--3-3-33--2~~~--|
G]--1-1-11--2-2-22--2~~~--|
D]--2-2-22--0-0-00--2~~~--|
A]--2-2-22----------0~~~--|
E]--0-0-00----------------|

N/C                                       E  D  A 
And I accidentally stick it in your butt ho-o-o-ole
         D             E  D  A
I put it in your butt ho-o-o-ole
              D         E  D  A
I swear that wasn't my go-o-o-oal
              D                 E  D  A
To put it all up in your booty ho-o-o-ole


 OUTRO:
    D        A
e]-----2~~~------0~~~--|
B]----3~~~------2~~~---|
G]---2~~~------2~~~----|
D]--0~~~------2~~~-----|
A]-----------0~~~------|
E]---------------------|

 D          A
And I swear... I'll never do it again
N/C
...Unless you kinda liked it




××××××××××××××××××××××××××××××××××××××××××××××××××××××××××××××××××××××××××××××××
13.                              N o t   H o m e
××××××××××××××××××××××××××××××××××××××××××××××××××××××××××××××××××××××××××××××××

Tabbed by Jordan Lapping

Standard E Tuning


 CHORDS USED:
     A    D    G
e]---0----2----3---|
B]---2----3----0---|
G]---2----2----0---|
D]---2----0----0---|
A]---0---------2---|
E]-------------3---|


 VERSE:
    A         G      D
e]------0~~~------3-----2~~~--|
B]-----2~~~------0-----3~~~---|
G]----2~~~------0-----2~~~----|
D]---2~~~------0-----0~~~-----| (x3)
A]--0~~~------2---------------|
E]-----------3----------------|

    G        D      A
e]-------3~-----2~------0~~~--|
B]------3~-----3~------2~~~---|
G]-----0~-----2~------2~~~----|
D]----0~-----0~------2~~~-----|
A]---2~-------------0~~~------|
E]--3~------------------------|

    G        D      A
e]-------3~-----2~------0~~~--|
B]------0~-----3~------2~~~---|
G]-----0~-----2~------2~~~----|
D]----0~-----0~------2~~~-----|
A]---2~-------------0~~~------|
E]--3~------------------------|

     A                            G          D
You say that you're leaving, but just for a day
     A                    G      D
The company wants you to fly to LA
        A                    G         D
So you leave me alone and I sit and I say
  G          D    A        G     D            A
"What will I do today - Today, while you're away?..."


 CHORUS:
    A              G      D
e]--000000-000000--33333--22222--|
B]--222222-222222--00000--33333--|
G]--222222-222222--00000--22222--|
D]--222222-222222--00000--00000--| (x3)
A]--000000-000000--22222---------|
E]-----------------33333---------|

    G      D      A
e]--33333--22222--0~~--|
B]--33333--33333--2~~--|
G]--00000--22222--2~~--|
D]--00000--00000--2~~--|
A]--22222---------0~~--|
E]--33333--------------|

    G        D      A
e]-------3~-----2~------0~~~--|
B]------0~-----3~------2~~~---|
G]-----0~-----2~------2~~~----|
D]----0~-----0~------2~~~-----|
A]---2~-------------0~~~------|
E]--3~------------------------|

N/C         A                         G             D
I will... sniff all your underwear, dress in your clothes
  A                     G         D
Pleasure myself inside your pantyhose
    A                    G         D
I know it's not easy to leave me alone
          G         D              A
But it's more fun when you're not home
            G                    D   A
Yeah, it's more fun when you're not home...




××××××××××××××××××××××××××××××××××××××××××××××××××××××××××××××××××××××××××××××××
14.                    V o i c e s   I n   M y   H e a d
××××××××××××××××××××××××××××××××××××××××××××××××××××××××××××××××××××××××××××××××

Tabbed by Jordan Lapping

Standard E Tuning


 CHORDS USED:
     Bm   C    D    Em   G
e]---2----0----2----0----3---|
B]---3----1----3----0----0---|
G]---4----0----2----0----0---|
D]---4----2----0----2----0---|
A]---2----3---------2----2---|
E]------------------0----3---|


 INTRO:
    G     Bm    G     Bm    G     Bm    G     Bm
e]----3-----2-----3-----2-----3-----2-----3-----2----|
B]----3-----3-----0-----3-----0-----3-----0-----3----|
G]----0-----4-----0-----4-----0-----4-----0-----4----|
D]---------------------------------------------------|
A]--------2---0-------2-----------2---0-------2---0--|
E]--3-----------3-----------3-----------3------------|


 VERSE 1:
    G     Bm
e]----3-----2----|
B]----0-----3----|
G]----0-----4----|
D]---------------| (x8)
A]--------2---0--|
E]--3------------|

    Em    Bm    Em    Bm    Em    Bm    Em    Bm
e]----0-----2-----0-----2-----0-----2-----0-----2--|
B]----0-----3-----0-----3-----0-----3-----0-----3--|
G]----0-----4-----0-----4-----0-----4-----0-----4--|
D]-------------------------------------------------|
A]--------2-----------2-----------2---0-------2----|
E]--0-----------0-----------0-----------0----------|

    G     Bm
e]----3-----2----|
B]----0-----3----|
G]----0-----4----|
D]---------------| (x5)
A]--------2---0--|
E]--3------------|

  G    Bm  G             Bm      G   Bm   G   Bm
Thank you all for coming to my show
  G     Bm    G            Bm         G   Bm   G   Bm
You've been great, but now I have to go
Em Bm Em        Bm           Em   Bm   Em   Bm
Everyone had a super time I hope
 G    Bm    G            Bm      G   Bm   G   Bm
Some songs tend to push the envolope


 CHORUS 1:
    C           D
e]----0-----0-----2-----2----|
B]----1-----1-----3-----3----|
G]----0-----0-----2-----2----|
D]--------------0-----0---0--| (x3)
A]--3-----3------------------|
E]---------------------------|

  C                   D
These are things that I have said
C                    D
But there are voices in my head
C                 D
And if you could hear them

This is what they'd say...


 INTERLUDE:
    G     Bm
e]----3-----2----|
B]----3-----3----|
G]----0-----4----|
D]---------------|
A]--------2---0--|
E]--3------------|

    G     Bm
e]----3-----2----|
B]----0-----3----|
G]----0-----4----|
D]---------------| (x3)
A]--------2---0--|
E]--3------------|


 VERSE 2:
    G     Bm
e]----3-----2----|
B]----0-----3----|
G]----0-----4----|
D]---------------| (x8)
A]--------2---0--|
E]--3------------|

  G    Bm  G             Bm      G
Thank you all for coming to my show-
                    Bm              G               Bm
(-Oh it hurts, you bastards didn't laugh at my new Nazi song and)
  G     Bm    G            Bm         G
You've been great, but now I have to go-
                       Bm                G                  Bm
(-Go and ask that girl in front to come backstage and show her thong and)
Em Bm Em        Bm           Em
Everyone had a super time I hope-
                          Bm          Em                 Bm
(-I hope the guy who heckled me gets hit by a big bus, that fucker)
 G    Bm    G            Bm      G
Some songs tend to push the envolope-
                      Bm            G                          Bm
(-Open up your eyes, your wife and girlfriend both showed up, you sucker)


 CHORUS 2:
    C           D
e]----0-----0-----2-----2----|
B]----1-----1-----3-----3----|
G]----0-----0-----2-----2----|
D]--------------0-----0---0--| (x2)
A]--3-----3------------------|
E]---------------------------|

    C           D
e]----0-----0-----2--|
B]----1-----1-----3--|
G]----0-----0-----2--|
D]--------------0----|
A]--3-----3----------|
E]-------------------|

  C                 D
They're the voices in my head- (-You're such a mess)
C                    D
Saying things that shouldn't be said- (-You're talentless)
C                  D
I just hope that they will- (-No, we won't-) -Go away...


 INTERLUDE:
    G     Bm
e]----3-----2----|
B]----3-----3----|
G]----0-----4----|
D]---------------|
A]--------2---0--|
E]--3------------|

    G     Bm
e]----3-----2----|
B]----0-----3----|
G]----0-----4----|
D]---------------| (x5)
A]--------2---0--|
E]--3------------|

"But wait, there's more."


 VERSE 3:
    G     Bm
e]----3-----2----|
B]----0-----3----|
G]----0-----4----|
D]---------------| (x8)
A]--------2---0--|
E]--3------------|

  G    Bm  G             Bm      G
Thank you all for coming to my show-
      (I have to take a piss)
                Bm     G            Bm
(-God, I hope there's cocaine left backstage)
  G     Bm    G            Bm         G
You've been great, but now I have to go-
   (Why'd I sign up for this?)
                Bm     G            Bm
(-God, I hope there's cocaine left backstage)
Em     Bm   Em    Bm           Em
You've all had a super time I hope-
  (Leave this song on the shelf)
                          Bm     Em           Bm
(-I really, really hope there's cocaine left backstage)
 G    Bm    G            Bm      G
Some songs tend to push the envolope-
     (I should just kill myself)
         Bm          G          Bm
(-He is right; you should kill yourself)


 CHORUS 3:
    C           D
e]----0-----0-----2-----2----|
B]----1-----1-----3-----3----|
G]----0-----0-----2-----2----|
D]--------------0-----0---0--| (x2)
A]--3-----3------------------|
E]---------------------------|

    C           D
e]----0-----0-----2--|
B]----1-----1-----3--|
G]----0-----0-----2--|
D]--------------0----|
A]--3-----3----------|
E]-------------------|

  C                 D
They're the voices in my head- (-You're such a mess)
C                    D
Saying things that shouldn't be said- (-You're talentless)
C                  D
I just hope that they will- (-No, we won't-) -Go away...


 PRE-OUTRO:
    G     Bm
e]----3-----2--|
B]----3-----3--|
G]----0-----4--|
D]--------4----|
A]-------------|
E]--3----------|


 OUTRO:
    G     Bm
e]----3-----2--|
B]----0-----3--|
G]----0-----4--|
D]--------4----| (x2)
A]-------------|
E]--3----------|

    G     Bm
e]----3-----2----|
B]----0-----3----|
G]----0-----4----|
D]---------------| (x5)
A]--------2---0--|
E]--3------------|

    G    Bm   G
e]----3----2----3--------3~~~--|
B]----0----3----0-------0~~~---|
G]----0----4----0------0~~~----|
D]--------------------0~~~-----|
A]-------2-----------2~~~------|
E]--3---------3-----3~~~-------|

G         Bm        G
No, they won't go away-
             Bm                G
(-Never go away-) (-Never go away)
  Bm              G
They're here to stay-
   Bm             G
(-We're here to stay-) (-We're here to stay)
  Bm          G
They say I'm gay- (-You're gay)
   Bm             G
(-You're gay-) (-Absolutely-) I'm not gay
Bm         G                     Bm  
I say "No way"- (-You're gay-) -No way!
                  G
(-You're gay-) -You're gay- (-You're gay-)
N/C                 G
Okay, I'm gay- (-Bicurious...)




××××××××××××××××××××××××××××××××××××××××××××××××××××××××××××××××××××××××××××××××
15.                         [ B O N U S ]   D & D
××××××××××××××××××××××××××××××××××××××××××××××××××××××××××××××××××××××××××××××××

Tabbed by Jordan Lapping

Standard E Tuning


 CHORDS USED:
     A    B7   E    G
e]---0----0----0----3---|
B]---2----0----0----0---|
G]---2----2----1----0---|
D]---2----1----2----0---|
A]---0----2----2----2---|
E]--------0----0----3---|


 INTRO:
    E     G     E     G     E     G     A
e]--0-00--3333--0-00--3333--0-00--3333--0-xxxxxx--|
B]--0-00--0000--0-00--0000--0-00--0000--2-xxxxxx--|
G]--1-11--0000--1-11--0000--1-11--0000--2-xxxxxx--|
D]--2-22--0000--2-22--0000--2-22--0000--2-xxxxxx--|
A]--2-22--2222--2-22--2222--2-22--2222--0-xxxxxx--|
E]--0-00--3333--0-00--3333--0-00--3333------------|

    E     G     E     G     E     G     A
e]--0-00--3333--0-00--3333--0-00--3333--0--|
B]--0-00--0000--0-00--0000--0-00--0000--2--|
G]--1-11--0000--1-11--0000--1-11--0000--2--|
D]--2-22--0000--2-22--0000--2-22--0000--2--| (x2)
A]--2-22--2222--2-22--2222--2-22--2222--0--|
E]--0-00--3333--0-00--3333--0-00--3333-----|


 VERSE 1:
    E   G      E   G      E   G      A
e]--00--3-333--00--3-333--00--3-333--0-xxxxxx--|
B]--00--0-000--00--0-000--00--0-000--2-xxxxxx--|
G]--11--0-000--11--0-000--11--0-000--2-xxxxxx--|
D]--22--0-000--22--0-000--22--0-000--2-xxxxxx--| (x2)
A]--22--2-222--22--2-222--22--2-222--0-xxxxxx--|
E]--00--3-333--00--3-333--00--3-333------------|

    E   G      E   G      E   G      A
e]--00--3-333--00--3-333--00--3-333--0--|
B]--00--0-000--00--0-000--00--0-000--2--|
G]--11--0-000--11--0-000--11--0-000--2--|
D]--22--0-000--22--0-000--22--0-000--2--|
A]--22--2-222--22--2-222--22--2-222--0--|
E]--00--3-333--00--3-333--00--3-333-----|

    E   G      E   G      A        B7
e]--00--3-333--00--3-333--000-000--000-000--|
B]--00--0-000--00--0-000--222-222--000-000--|
G]--11--0-000--11--0-000--222-222--222-222--|
D]--22--0-000--22--0-000--222-222--111-111--|
A]--22--2-222--22--2-222--000-000--222-222--|
E]--00--3-333--00--3-333-----------000-000--|

           E           G           E        G
I got my twelve sided die and I'm ready to roll
        E         G           A
With a wizard and my goblin crew
     E                 G          E         G
My friends are coming over to my mom's basement
          E           G            A
Bringing Funyuns and the Mountain Dew
         E          G            E      G
I got a big broad sword made outta cardboard
           E        G           A
And that stereos a-pumpin zeppelin ("Dazed and Confused")
           E           G             E             G
It's that time of the night, we turn on the black light
         A                          B7
Let the dungeons and the dragons begin!


 CHORUS 1:
    E     G     E     G     E     G     E     G  
e]--0-00--3333--0-00--3333--0-00--3333--0-00--3333--|
B]--0-00--0000--0-00--0000--0-00--0000--0-00--0000--|
G]--1-11--0000--1-11--0000--1-11--0000--1-11--0000--|
D]--2-22--0000--2-22--0000--2-22--0000--2-22--0000--|
A]--2-22--2222--2-22--2222--2-22--2222--2-22--2222--|
E]--0-00--3333--0-00--3333--0-00--3333--0-00--3333--|

    E     G     E     G     E     G     A
e]--0-00--3333--0-00--3333--0-00--3333--0--|
B]--0-00--0000--0-00--0000--0-00--0000--2--|
G]--1-11--0000--1-11--0000--1-11--0000--2--|
D]--2-22--0000--2-22--0000--2-22--0000--2--|
A]--2-22--2222--2-22--2222--2-22--2222--0--|
E]--0-00--3333--0-00--3333--0-00--3333-----|

       E     G     E     G
It's D&D
 E                 G          E
Fighting with the legends of Yore
     G  E     G     E     G
It's D&D
 E              G      A
Never kissed a lady before


 INTERLUDE:
    E     G     E     G     E     G     A
e]--0-00--3333--0-00--3333--0-00--3333--0------12--|
B]--0-00--0000--0-00--0000--0-00--0000--2----------|
G]--1-11--0000--1-11--0000--1-11--0000--2----------|
D]--2-22--0000--2-22--0000--2-22--0000--2----------|
A]--2-22--2222--2-22--2222--2-22--2222--0----------|
E]--0-00--3333--0-00--3333--0-00--3333-------------|

    E     G     E     G     E     G     A
e]--0-00--3333--0-00--3333--0-00--3333--0--|
B]--0-00--0000--0-00--0000--0-00--0000--2--|
G]--1-11--0000--1-11--0000--1-11--0000--2--|
D]--2-22--0000--2-22--0000--2-22--0000--2--|
A]--2-22--2222--2-22--2222--2-22--2222--0--|
E]--0-00--3333--0-00--3333--0-00--3333-----|


 VERSE 2:
    E   G      E   G      E   G      A
e]--00--3-333--00--3-333--00--3-333--0-xxxxxx--|
B]--00--0-000--00--0-000--00--0-000--2-xxxxxx--|
G]--11--0-000--11--0-000--11--0-000--2-xxxxxx--|
D]--22--0-000--22--0-000--22--0-000--2-xxxxxx--|
A]--22--2-222--22--2-222--22--2-222--0-xxxxxx--|
E]--00--3-333--00--3-333--00--3-333------------|

    E   G      E   G      E   G      A
e]--00--3-333--00--3-333--00--3-333--0--|
B]--00--0-000--00--0-000--00--0-000--2--|
G]--11--0-000--11--0-000--11--0-000--2--|
D]--22--0-000--22--0-000--22--0-000--2--|
A]--22--2-222--22--2-222--22--2-222--0--|
E]--00--3-333--00--3-333--00--3-333-----|

    E   G      E   G      E   G      A
e]--00--3-333--00--3-333--00--3-333--0-xxxxxx--|
B]--00--0-000--00--0-000--00--0-000--2-xxxxxx--|
G]--11--0-000--11--0-000--11--0-000--2-xxxxxx--|
D]--22--0-000--22--0-000--22--0-000--2-xxxxxx--|
A]--22--2-222--22--2-222--22--2-222--0-xxxxxx--|
E]--00--3-333--00--3-333--00--3-333------------|

    E   G      E   G      A        B7
e]--00--3-333--00--3-333--000-000--000-000--|
B]--00--0-000--00--0-000--222-222--000-000--|
G]--11--0-000--11--0-000--222-222--222-222--|
D]--22--0-000--22--0-000--222-222--111-111--|
A]--22--2-222--22--2-222--000-000--222-222--|
E]--00--3-333--00--3-333-----------000-000--|

          E           G                  E            G
Now the 'Lord of The Rings', 'The Dark Crystal' and things
    E              G         A
We use these as a reference tool
      E                  G              E       G
And when we put on our cloaks and tell warlock jokes
           E       G             A      N/C
We're the coolest kids in the school! - No, we're not...
     E              G              E            G
Now Teich's a real bastard, but a fair dungeon master
          E              G          A
He's got hitpoints and charisma to lend
         E            G              E                 G
And I rehearse in my room or what I call The Dragon's Tomb 
          A                    B7
When I'm not out with my girlfriend!


 CHORUS 2:
    E     G     E     G     E     G     E     G  
e]--0-00--3333--0-00--3333--0-00--3333--0-00--3333--|
B]--0-00--0000--0-00--0000--0-00--0000--0-00--0000--|
G]--1-11--0000--1-11--0000--1-11--0000--1-11--0000--|
D]--2-22--0000--2-22--0000--2-22--0000--2-22--0000--|
A]--2-22--2222--2-22--2222--2-22--2222--2-22--2222--|
E]--0-00--3333--0-00--3333--0-00--3333--0-00--3333--|

    E     G     E     G     E     G     A
e]--0-00--3333--0-00--3333--0-00--3333--0--|
B]--0-00--0000--0-00--0000--0-00--0000--2--|
G]--1-11--0000--1-11--0000--1-11--0000--2--|
D]--2-22--0000--2-22--0000--2-22--0000--2--|
A]--2-22--2222--2-22--2222--2-22--2222--0--|
E]--0-00--3333--0-00--3333--0-00--3333-----|

       E     G     E     G
It's D&D
 E             G         E
Summoning the demons of hell
     G  E     G     E     G
It's D&D
  E                         G    A
When our shift ends at the Taco Bell
N/C
Gordita! Chalupa!


 INTERLUDE:
    E     G     E     G     E     G     A
e]--0-00--3333--0-00--3333--0-00--3333--0--|
B]--0-00--0000--0-00--0000--0-00--0000--2--|
G]--1-11--0000--1-11--0000--1-11--0000--2--|
D]--2-22--0000--2-22--0000--2-22--0000--2--|
A]--2-22--2222--2-22--2222--2-22--2222--0--|
E]--0-00--3333--0-00--3333--0-00--3333-----|

    E   G      E   G      E   G      A
e]--00--3-333--00--3-333--00--3-333--0-xxxxxx--|
B]--00--0-000--00--0-000--00--0-000--2-xxxxxx--|
G]--11--0-000--11--0-000--11--0-000--2-xxxxxx--|
D]--22--0-000--22--0-000--22--0-000--2-xxxxxx--| (x2)
A]--22--2-222--22--2-222--22--2-222--0-xxxxxx--|
E]--00--3-333--00--3-333--00--3-333------------|


 BRIDGE:
    E   G      E   G      E   G      A
e]--00--3-333--00--3-333--00--3-333--0-xxxxxx--|
B]--00--0-000--00--0-000--00--0-000--2-xxxxxx--|
G]--11--0-000--11--0-000--11--0-000--2-xxxxxx--|
D]--22--0-000--22--0-000--22--0-000--2-xxxxxx--|
A]--22--2-222--22--2-222--22--2-222--0-xxxxxx--|
E]--00--3-333--00--3-333--00--3-333------------|

    E   G      E   G      E   G      A
e]--00--3-333--00--3-333--00--3-333--0--|
B]--00--0-000--00--0-000--00--0-000--2--|
G]--11--0-000--11--0-000--11--0-000--2--|
D]--22--0-000--22--0-000--22--0-000--2--| (x3)
A]--22--2-222--22--2-222--22--2-222--0--|
E]--00--3-333--00--3-333--00--3-333-----|

    E   G      E   G      E   G      A
e]--00--3-333--00--3-333--00--3-333--0-xxxxxx--|
B]--00--0-000--00--0-000--00--0-000--2-xxxxxx--|
G]--11--0-000--11--0-000--11--0-000--2-xxxxxx--|
D]--22--0-000--22--0-000--22--0-000--2-xxxxxx--| (x3)
A]--22--2-222--22--2-222--22--2-222--0-xxxxxx--|
E]--00--3-333--00--3-333--00--3-333------------|

    E   G      E   G      A        B7
e]--00--3-333--00--3-333--000-000--000-000--|
B]--00--0-000--00--0-000--222-222--000-000--|
G]--11--0-000--11--0-000--222-222--222-222--|
D]--22--0-000--22--0-000--222-222--111-111--|
A]--22--2-222--22--2-222--000-000--222-222--|
E]--00--3-333--00--3-333-----------000-000--|

         E         G               E              G
Well my medieval brother, there's room here for another
           E              G           A
Would you care to take a roll of the die?
          E       G                    E       G
You guys make me weep, you think that you can keep up
        E          G        A   N/C
With a warrior as mighty as I? (Wow.)
               E      G             E           G
See you're in mortal danger, I'm a first class ranger
       E       G             A
Who's half Gargoyle and half Elf
         E            G              E           G
And if that doesn't scare you, maybe I should beware you
         E        G              A
Of what lurks within my gaming shelf
            E           G              E       G
Next to my Junior High Annual lies my monster manual
        E          G                A
And my customized Dungeon Master screen
           E             G           E          G
I've got treasures and traps on my graph paper maps
              E              G          A
Next to my three inch solid pewter figurines
            E                G                    E              G
So if you think you got the balls, bring on your Dungeon Master calls
          E              G           A
I'll be protected by my robe of destruction
            E                 G                   E              G
And I will leave you both in tears 'cause I'm the Dungeon Master here
     A                               B7
And you two are in need of some instruction!


 CHORUS 3:
    E     G     E     G     E     G     E     G     E
e]--0-00--3333--0-00--3333--0-00--3333--0-00--3333--0~~~--|
B]--0-00--0000--0-00--0000--0-00--0000--0-00--0000--0~~~--|
G]--1-11--0000--1-11--0000--1-11--0000--1-11--0000--1~~~--|
D]--2-22--0000--2-22--0000--2-22--0000--2-22--0000--2~~~--|
A]--2-22--2222--2-22--2222--2-22--2222--2-22--2222--2~~~--|
E]--0-00--3333--0-00--3333--0-00--3333--0-00--3333--0~~~--|

       E     G     E     G
It's D&D
 E        G        E
Warriors who terrify
    G  E
It's D&D...
N/C
Virgins 'til the day we...


 OUTRO:
    E     G     E     G     E     G     E
e]--0-00--3333--0-00--3333--0-00--3333--0-0-0-0-0000000-0-0-0-0-0~~~--|
B]--0-00--0000--0-00--0000--0-00--0000--0-0-0-0-0000000-0-0-0-0-0~~~--|
G]--1-11--0000--1-11--0000--1-11--0000--1-1-1-1-1111111-1-1-1-1-1~~~--|
D]--2-22--0000--2-22--0000--2-22--0000--2-2-2-2-2222222-2-2-2-2-2~~~--|
A]--2-22--2222--2-22--2222--2-22--2222--2-2-2-2-2222222-2-2-2-2-2~~~--|
E]--0-00--3333--0-00--3333--0-00--3333--0-0-0-0-0000000-0-0-0-0-0~~~--|

N/C
ONE, TWO, FUCK YOU!

    E     G     E     G     E     G     E
...Dieeeeeeeeeeeeeeeeeeeeeeeeeeeeeeeeeeee!




××××××××××××××××××××××××××××××××××××××××××××××××××××××××××××××××××××××××××××××××
                      E x t r a   I n f o r m a t i o n
××××××××××××××××××××××××××××××××××××××××××××××××××××××××××××××××××××××××××××××××



 1. Vanilla Ice Cream
    From show-to-show performances, Stephen asks the audience for certain names
    instead of listing the ones mentioned here. A plant in the audience is
    often used to shout out the name Michael Jackson; to which Stephen replies
    "Michael Jackson? That's a whole different song, my friend!" He then continues
    to sing while strumming the chorus: "I only fuck white boys, the little boys."
    Despite what is shout out, he always ends with the name Strom Thurmond.


 2. Ugly Baby
    Notably in his DVD, Live at the El Ray (2004), you can see him perform this
    to a live audience. The only major difference between his DVD and The Craig
    Machine album, is that a capo is used on the first fret of the former, whilst
    the latter uses no capo.


 3. Halloween
    In other performances of "Halloween" Stephen picks the introduction, the
    first and second verses, while strumming the remainder of the song.


 4. Love Song
    During the first verse upon singing "I'd take a trip with you", a D is picked.
    Stephen will occasionally perform a little hammer on/pull off on the high e
    string after this, which tends to sound rather nice and beautiful. He does
    this with his pinky finger for a brief moment, which would be as so:
    e|--2h3p2--|


 5. Craig
    In the Live at the El Ray (2004) DVD commentary, Stephen explains that he uses
    either "Craig", "Not Home" or "Half a Man" to open his shows. These songs are
    apparently some of the only few that don't 'freak out' the audience straight
    away (!)


 6. Beelz
    It is entirely optional if the high e string is picked or not during the
    verses, as a lot of the time when Stephen performs it, you cannot actually
    hear it. Often it is muted (intentionally or not) by his index/first finger.
    In recent tours, Stephen also has switched the "Boston Red Sox" line to fit
    current political affairs; notably "I'm the reason that Barack Obama doesn't
    have a chance" which never fails to get a reaction.


 7. Albino
    If preferred during the pre-interlude, the performer can barré the G chord
    (355433), as opposed to switching to an open G. This can help the performer
    since the switch from a Cm is much quicker.


 8. Mixer At Delta Chi
    If you aren't too comfortable with barré chords, this song can be quite a
    tough one to do - every chord in this song is a result of a power or barré
    chord (even the A is barréd via the index finger). In conclusion, you may
    prefer to substitute the barréd C and A chords for their open alternatives.
    This takes away from some of the 'heavier', 'meatier' sound; but certainly
    makes life feel a little easier.


 9. Little Tiny Moustache
    In updated performances, Stephen has substituted the second chorus lyrics
    for "I think you're a Nazi, look deep in your psyche baby. Are you a Nazi?
    Seem a little Third Reich, maybe." Similarly, the "Wagner Fest" lyric in
    the bridge has been replaced by "But then again I met you at a Schindler's
    List protest..."


10. Pierre 
    Since the release of The Craig Machine, a second verse has been added to the
    song (though the chords stay the same). You can find this uploaded elsewhere
    on Ultimate-Guitar.


11. Whittlin' Man
    Both the introduction and pre-choruses use barré chords, whilst the verses use
    open chords. If this proves too challenging, they can be replaced for the more
    standard A - Esus4 - C - G chords. Similarly the chorus uses barré chords, but
    these again can be substituted for (a slightly easier) D - A# - D - A# - C.


12. Classic Rock Song
    If you have seen Stephen's Live at the El Ray DVD, you'll have heard a drastic
    difference in chords. For The Craig Machine, the entire song has been revamped,
    with the exception of the lyrics. The original introduction has been removed
    and the chord progression completely replaced.
 

13. Not Home
    There is actually a second verse which Stephen no longer performs, and it
    unfortunately was not on his Craig Machine CD. Whilst the chords remain the
    same, he would open the show with the first verse taught here, and end the show
    with the second. For those interested in what it is, I've added a complete
    "Not Home" tab which you can find on this site.


14. Voices in my Head
    Since Stephen performed in The Wedding Singer, he unfortunately forgot most of
    his songs (from a guitar-perspective). As a result, this was one of the 'lost'
    tracks, and so whenever he does perform it live on rare occasions, it is to be
    cued from a sound-booth.


15. (BONUS) D&D
    This is a drastically improved version of the song, originally from his second
    album, Superhero (2000). Originally sung with Mark Teich, this updated version
    introduces a third singer; Rodney Cone, who sings the very long bridge. Also,
    the "ONE, TWO, FUCK YOU!" at the end of the song can be easily thought of as
    "WANT TO FUCK YOU".



××××××××××××××××××××××××××××××××××××××××××××××××××××××××××××××××××××××××××××××××
                           A n y   Q u e s t i o n s ?
××××××××××××××××××××××××××××××××××××××××××××××××××××××××××××××××××××××××××××××××


If you have any questions regarding anything in this guide, feel free to message
me over here on Ultimate Guitar. I'll try and respond as quickly as possible, and
I'm more than happy to help out if I can. Any corrections may also be messaged to
me, but I have done my best to double-check (and triple-check) everything in here.
But, there's often that pesky little mistake that seems to stick out like a sore
thumb to everyone else, when to me it's practically invisible!

Lastly, the content here is as correct as I can get it. I've tabbed this out in
the manner which Stephen performs it; if you prefer to perform it different then
that is absolutely fine. However, 100% accuracy cannot ever be ensured, but a good
90-95% of the content in here certainly is.

Visit my page at www.YouTube.com/StephenLynchsFan to see instrumental performances
of anything in here; perhaps to give you a better idea of how I perform it, or
just to have a good listen and enjoy the music.

Thanks for reading guys, I hope this proves useful!


××××××××××××××××××××××××××××××××××××××××××××××××××××××××××××××××××××××××××××××××
                                 T H E   E N D
××××××××××××××××××××××××××××××××××××××××××××××××××××××××××××××××××××××××××××××××
Добавлено: 09.08.2013
Другие материалы по этой песне:
  • Аккорды и текст

Страница создана 09.08.2013
http://primanota.ru/stephen-lynch/the-craig-machine-chords.htm
Привет, Гость.
Предлагаем пройти революционный курс по гитаре.
Подарок от PrimaNota.Ru, забирай!