PrimaNota.ru - самый крупный в мире бесплатный архив песенных текстов, аккордов, табулатур и нот


Steely Dan - Time Out of Mind - текст песни, бас-таба, видео

Регистрация Запомнить меня
Войти через:  Facebook Google Twitter Vk Yandex Mail.ru

Steely Dan - Time Out of Mind - текст песни, бас-таба, видео

Печатать
Просмотров: 82
Авторы музыки: Donald Fagen, Walter Becker

                                  Time Out Of Mind
                                     Steely Dan

Bass                                                              Donald Fagen
                                                                 Walter Becker
As played by Walter Becker


Intro

|-----------------|-----------------|-----------------|-----------------|
|-----------------|---7-------------|-----------------|-----------------|
|-----------------|-----------------|-----------------|--/7-------------|
|-----------------|-------5-5-------|-----------------|-------5-5-------|
  W                 E E E E Q   Q     W                 E E E E Q   Q   

|-----------------|-----------------|-----------------|-----------------|
|-----------------|-----------------|-----------------|-----------------|
|-----------------|--/7-------------|-----------------|--/7-------------|
|-------5-5-------|-------5-5-------|-----------------|-------5-5-------|
  Q.    E Q   Q     E E E E Q   Q     W                 E E E E Q   Q

|-----------------|-----------------|
|-----------------|---7-------------|
|-----------------|-----------------|
|-------5-5-------|-------5-5-------|
  E E E E Q   Q     E E E E Q   Q

Verse 1

|-----------------|-----------------|-----------------|-----------------|
|-----------------|-----------------|-----------------|---7-------------|
|-----------------|--/7-------------|-----------------|-----------------|
|-----------------|-------5-5-------|-------5-5-------|-------5-5-------|
  W                 E E E E Q   Q     Q.    E Q   Q     E E E E Q   Q

|-----------------|-----------------|-----------------|-----------------|
|-----------------|-----------------|-----------------|-----------------|
|-----------------|--/7-------------|-----------------|--/7-------------|
|-----------------|-------5-5-------|-------5-5-------|-------5-5-------|
  W                 E E E E Q   Q     Q.    E Q   Q     E E E E Q   Q

Pre-Chorus 1

|-----------------|-----------------|-----------------|-----------------|
|-----------------|-----------------|-----------------|-----------------|
|-----------------|--/7-------------|-----------------|--/7-------------|
|---------5-------|-------5-5-------|---------5-------|-------5-5-------|
  H       Q   Q     E E E E Q   Q     H       Q   Q     E E E E Q   Q  

|-----------------|-----------------|
|-----------------|---7-------------|
|-----------------|-----------------|
|---------5-------|-------5-5-------|
  H       Q   Q     E E E E Q   Q

Chorus 1

|-----------------|-----------------|-----------------|-----------------|
|-7---7-5---4-4---|-----------------|-7---7-5---4-4---|-----------------|
|-----------------|-7-----5---------|-----------------|-7-----5---------|
|-----------------|-----------------|-----------------|-----------------|
  E E E E E E Q     Q.    E H         E E E E E E Q     Q.    E H

|-----------------|-----------------|-----------------|-----------------|
|-7---7-5---4-4---|-----------------|---9-9---7-------|-----------------|
|-----------------|-7-----5---------|-----------------|--/7-------------|
|-----------------|-----------------|-----------------|-------5-5-------|
  E E E E E E Q     Q.    E H         E E Q   Q   Q     E E E E Q   Q  

|-----------------|-----------------|
|-----------------|---7-------------|
|-----------------|-----------------|
|-------5-5-------|-------5-5-------|
  Q.    E Q   Q     E E E E Q   Q

Verse 2

|-----------------|-----------------|-----------------|-----------------|
|-----------------|-----------------|-----------------|---7-------------|
|-----------------|--/7-------------|-----------------|-----------------|
|-----------------|-------5-5-------|-------5-5-------|-------5-5-------|
  W                 E E E E Q   Q     Q.    E Q   Q     E E E E Q   Q

|-----------------|-----------------|-----------------|-----------------|
|-----------------|-----------------|-----------------|-----------------|
|-----------------|--/7-------------|-----------------|--/7-------------|
|-----------------|-------5-5-------|-------5-5-------|-------5-5-------|
  W                 E E E E Q   Q     Q.    E Q   Q     E E E E Q   Q

Pre-Chorus 2

|-----------------|-----------------|-----------------|-----------------|
|-----------------|---7-------------|-----------------|-----------------|
|-----------------|-----------------|-----------------|--/7-------------|
|---------5-------|-------5-5-------|---------5-------|-------5-5-------|
  H       Q   Q     E E E E Q   Q     H       Q   Q     E E E E Q   Q  

|-----------------|-----------------|-----------------|-----------------|
|-----------------|---7-------------|-----------------|-----------------|
|-----------------|-----------------|-----------------|--/7-------------|
|---------5-------|-------5-5-------|---------5-------|-------5-5-------|
  H       Q   Q     E E E E Q   Q     H       Q   Q     E E E E Q   Q

Chorus 2

|-----------------|-----------------|-----------------|-----------------|
|-7---7-5---4-4---|-----------------|-7---7-5---4-4---|-----------------|
|-----------------|-7-----5---------|-----------------|-7-----5---------|
|-----------------|-----------------|-----------------|-----------------|
  E E E E E E Q     Q.    E H         E E E E E E Q     Q.    E H

|-----------------|-----------------|-----------------|-----------------|
|-7---7-5---4-4---|-----------------|---9-9---7-------|-----------------|
|-----------------|-7-----5---------|-----------------|--/7-------------|
|-----------------|-----------------|-----------------|-------5-5-------|
  E E E E E E Q     Q.    E H         E E Q   Q   Q     E E E E Q   Q  

|-----------------|-----------------|
|-----------------|---7-------------|
|-----------------|-----------------|
|-------5-5-------|-------5-5-------|
  Q.    E Q   Q     E E E E Q   Q

Instrumental

|-----------------|-----------------|-----------------|-----------------|
|-----------------|-----------------|-----------------|-------0-2-4-2-4-|
|---4-----2-----0-|(0)--2-----4-4---|-0---5-----4---2-|-2-2-4-----------|
|-----------------|-----------------|-----------------|-----------------|
  E Q.    Q.    E   Q   Q.    E E E   E E Q.    Q   E   E.S E S S E E Q

|-----------------|-----------------|-----------------|-----------------|
|-----------------|---3-----3-2-2---|-----------------|---------4-------|
|---2---2-4---4-2-|-2---------------|-0---5-----4---2-|(2)2-4-----------|
|-----------------|-----------------|-----------------|-----------------|
  E Q   E Q   E E   E Q.    E E Q     E E Q.    Q   E   E E Q   H

|-----------------|-----------------|-----------------|-----------------|
|-----------------|-----------2-2---|-----------------|-------0-2-4-2-4-|
|-2---2---2---2---|-----0-----------|-0---5-----4---2-|-2-2-4-----------|
|---------------0-|(0)--------------|-----------------|-----------------|
  Q   Q   Q   E E   Q   Q.    E E E   E E Q.    Q   E   E.S E S S E E Q

|-----------------|-----------------|-----------------|-----------------|
|-----------------|-----3-----2-2---|-----------------|---------4-------|
|-2---2-4---4---3-|(3)3-------------|-0---5-----4---2-|(2)2-4-----------|
|-----------------|-----------------|-----------------|-----------------|
  Q   E Q   Q   E   E E Q.    E Q     E E Q.    Q   E   E E Q   H

|-----------------|-----------------|-----------------|-----------------|
|-----------------|-----------2-2---|-----------------|-------0-2-4-2-4-|
|-2---2---2---2---|-----0-----------|-0---5-----4---2-|(2)2-4-----------|
|---------------0-|(0)--------------|-----------------|-----------------|
  Q   Q   Q   E E   Q   Q.    E E E   E E Q.    Q   E   E.S E S S E E Q

|-----------------|-----------------|-----------------|-----------------|
|-----------------|-----3-----2-2---|-----------------|---------4-------|
|-2---2-4---4---3-|(3)3-------------|-0---5-----4---2-|(2)2-4-----------|
|-----------------|-----------------|-----------------|-----------------|
  Q   E Q   Q   E   E E Q.    E Q     E E Q.    Q   E   E E Q   H

|-----------------|-----------------|
|-----------------|-----------2-2---|
|-2---2---2---2---|-----0-----------|
|---------------0-|(0)--------------|
  Q   Q   Q   E E   Q   Q.    E E E

Pre-Chorus 3

|-----------------|-----------------|-----------------|-----------------|
|-----------------|-----------------|-----------------|-----------------|
|-----------------|--/7-------------|-----------------|--/7-------------|
|---------5-------|-------5-5-------|---------5-------|-------5-5-------|
  H       Q   Q     E E E E Q   Q     H       Q   Q     E E E E Q   Q  

|-----------------|-----------------|-----------------|-----------------|
|-----------------|-----------------|-----------------|---7-------------|
|-----------------|--/7-------------|-----------------|-----------------|
|---------5-------|-------5-5-------|-----------------|-------5-5-------|
  H       Q   Q     E E E E Q   Q     W                 E E E E Q   Q

Chorus 3

|-----------------|-----------------|-----------------|-----------------|
|-7---7-5---4-4---|-----------------|-7---7-5---4-4---|-----------------|
|-----------------|-7-----5---------|-----------------|-7-----5---------|
|-----------------|-----------------|-----------------|-----------------|
  E E E E E E Q     Q.    E H         E E E E E E Q     Q.    E H

|-----------------|-----------------|-----------------|-----------------|
|-7---7-5---4-4---|-----------------|---9-9---7-------|-----------------|
|-----------------|-7-----5---------|-----------------|--/7-------------|
|-----------------|-----------------|-----------------|-------5-5-------|
  E E E E E E Q     Q.    E H         E E Q   Q   Q     E E E E Q   Q  

|-----------------|-----------------|
|-----------------|---7-------------|
|-----------------|-----------------|
|-------5-5-------|-------5-5-------|
  Q.    E Q   Q     E E E E Q   Q

Outro

|-----------------|-----------------|-----------------|-----------------|
|-----------------|-----------------|-----------------|---7-------------|
|-----------------|--/7-------------|-----------------|-----------------|
|-----------------|-------5-5-------|-------5-5-------|-------5-5---5---|
  W                 E E E E Q   Q     Q.    E Q   Q     E E E E Q   Q

|-----------------|-----------------|-----------------|-----------------|
|-----------------|-----------------|-7-9-------------|---7-------------|
|-----------------|--/7-------------|-----------------|-----------------|
|-5---5-----------|-------5-5-------|-------5-5-------|-------5-5-------|
  Q   Q   H         E E E E Q   Q     E E E E Q   Q     E E E E Q   Q

|-----------------|-----------------|-----------------|-----------------|
|-7-9-------------|-----------------|-----------------|---7-------------|
|-----------------|--/7-------------|-----------------|-----------------|
|-----------------|-------5-5-------|-------5-5-------|-------5-5---5---|
  E E H.            E E E E Q   Q     Q.    E Q   Q     E E E E Q   Q

|-----------------|-----------------|-----------------|-----------------|
|-----------------|-----------------|-----------------|---7-------------|
|-----------------|--/7-------------|-----------------|-----------------|
|-5---5-----------|-------5-5-------|-------5-5-------|-------5-5-------|
  Q   Q   H         E E E E Q   Q     Q.    E Q   Q     E E E E Q   Q

|-----------------|-----------------|-----------------|-----------------|
|-----------------|-----------------|-----------------|---7-------------|
|-----------------|--/7-------------|-----------------|-----------------|
|-----------------|-------5-5-------|-------5-5-------|-------5-5---5---|
  W                 E E E E Q   Q     Q.    E Q   Q     E E E E Q   Q

|-----------------|-----------------|-----------------|-----------------||
|-----------------|-----------------|-----------------|---7-------------||
|-----------------|--/7-------------|-----------------|-----------------||
|-5---5-----------|-------5-5-------|-------5-5-------|-------5-5-------||
  Q   Q   H         E E E E Q   Q     Q.    E Q   Q     E E E E Q   Q


Key to rhythm notations:

W - Whole Note/Semi-Brieve
H - Half Note/Minim
Q - Quarter Note/Crotchet       Q. - Dotted Quarter Note
E - Eight Note/Quaver           E. - Dotted Eight Note
S - Sixteenth Note/Semi-Quaver  S. - Dotted Sixteenth Note
Добавлено: 06.10.2015
Другие материалы по этой песне:

Страница создана 20.06.2012
http://primanota.ru/steely-dan/time-out-of-mind-chords.htm
Привет, Гость.
Предлагаем пройти революционный курс по гитаре.
Подарок от PrimaNota.Ru, забирай!