PrimaNota.ru - самый крупный в мире бесплатный архив песенных текстов, аккордов, табулатур и нот


Steely Dan - East St Louis Toodle-Oo - бас-таба, видео

Регистрация Запомнить меня
Войти через:  Facebook Google Twitter Vk Yandex Mail.ru

Steely Dan - East St Louis Toodle-Oo - бас-таба, видео

Печатать
Просмотров: 41
Авторы музыки: Duke Ellington, Bubber Miley

                               East St Louis Toodle-oo
                                     Steely Dan

Bass                                                            Duke Ellington
                                                                     Bub Miley
As played by Walter Becker



In 2/2

Intro

|-----------------|-----------------|-----------------|---------1-------|
|---------1-------|---------3-------|---------5-------|-3---------------|
|-3---------------|-5---------------|-6---------------|-----------------|
|-----------------|-----------------|-----------------|-----------------|
  H       H         H       H         H       H         H       H       

|-0---------------|-----------------|-----------------|-----------------|
|---------1-------|-3---------------|---------6-------|-5---3---1---0---|
|-----------------|---------5-------|-6---------------|-----------------|
|-----------------|-----------------|-----------------|-----------------|
  H       H         H       H         H       H         Q   Q   Q   Q

Section A (1st Time)

|-----------------|-----------------|-----------------|---------1-------|
|---------1-------|---------3-------|---------5-------|-3---------------|
|-3---------------|-5---------------|-6---------------|-----------------|
|-----------------|-----------------|-----------------|-----------------|
  H       H         H       H         H       H         H       H       

|-0---------------|-----------------|-----------------|-----------------|
|---------1-------|-3---------------|---------6-------|-5---3---1---0---|
|-----------------|---------5-------|-6---------------|-----------------|
|-----------------|-----------------|-----------------|-----------------|
  H       H         H       H         H       H         Q   Q   Q   Q

|-----------------|-----------------|-----------------|---------1-------|
|---------1-------|---------3-------|---------5-------|-3---------------|
|-3---------------|-5---------------|-6---------------|-----------------|
|-----------------|-----------------|-----------------|-----------------|
  H       H         H       H         H       H         H       H       

|-----------------|-----------------|-----------------|-----------------|
|---------5-------|-3-----------5---|-----------------|---------1-------|
|-3---------------|---------5-------|-3-------2-------|-1---------------|
|-----------------|-----------------|-----------------|-----------------|
  H       H         H       Q   Q     H       H         H       H

Section B
       ___
      | 3 |
E E = Q   E

|-----------------|-----------------|-----------------|-----------------|
|-----------------|-----------------|-----------------|-----------------|
|---------6-------|---------6-------|---------6-------|---------6-------|
|-4---------------|-6---------------|-4---------------|-4---------------|
  Q   Q   Q   Q     Q   Q   Q   Q     Q   Q   Q   Q     Q   Q   Q   Q   

|-----------------|-----------------|-----------------|-----------------|
|-----------------|-----------------|-----------------|-----------------|
|-6-------4-------|-3-----3-----3---|-2-1---1-1-------|-----------------|
|-----------------|---------3-------|-----------5---5-|-5-4---4-4-3-----|
  H       H         Q.    E Q   Q     E E E E E E E E   E E E E E Q.

Section A (2nd Time)

|-----------------|-----------------|-----------------|---------1-------|
|---------1-------|---------3-------|---------5-------|-3---------------|
|-3---------------|-5---------------|-6---------------|-----------------|
|-----------------|-----------------|-----------------|-----------------|
  H       H         H       H         H       H         H       H       

|-0---------------|-----------------|-----------------|-----------------|
|---------1-------|-3---------------|-----------------|-----2---2---2---|
|-----------------|---------5-------|-3---2-------3---|(3)--------------|
|-----------------|-----------------|-----------------|-----------------|
  H       H         H       H         Q   H       Q     Q   Q   Q   Q

Section C (1st Time)

|-----------------|-----------------|-----------------|-----------------|
|-3---------------|-3-----------0---|-1---------------|-1-----------2---|
|---------1-------|---------1-------|---------1-------|---------1-------|
|-----------------|-----------------|-----------------|-----------------|
  Q   Q   Q   Q     Q   Q   Q   Q     Q   Q   Q   Q     Q   Q   Q   Q   

|-----------------|-----------------|-----------------|-----------------|
|-3---------------|-3-----------0---|-1---------------|-------------2---|
|---------1-------|---------1-------|-----------------|-----------------|
|-----------------|-----------------|-----------------|-----------------|
  Q   Q   Q   Q     Q   Q   Q   Q     Q   H.            Q   Q   Q   Q   

|-----------------|-----------------|-----------------|-----------------|
|-3---------------|-3-----------0---|-1---------------|-1---------------|
|---------1-------|---------1-------|---------1-------|---------1-------|
|-----------------|-----------------|-----------------|-------------3---|
  Q   Q   Q   Q     Q   Q   Q   Q     Q   Q   Q   Q     Q   Q   Q   Q   

|-----------------|-----------------|-----------------|-----------------|
|-----------------|-----------------|-----------------|-1-0-------------|
|-----------------|-1-------3-------|---------1-------|-----4-3---------|
|-4-------5-------|-----------------|-1---------------|-----------------|
  Q   Q   Q   Q     Q   Q   Q   Q     Q   Q   Q   Q     E E E E H

|-----------------|-----------------|
|-----------------|-1---3---1---0---|
|---------1-------|-----------------|
|-1---------------|-----------------|
  Q   Q   Q   Q     Q   Q   Q   Q 

Section A (3rd Time)

|-----------------|-----------------|-----------------|---------1-------|
|---------1-------|---------3-------|---------5-------|-3---------------|
|-3---------------|-5---------------|-6---------------|-----------------|
|-----------------|-----------------|-----------------|-----------------|
  H       H         H       H         H       H         H       H       

|-0---------------|-----------------|-----------------|-----------------|
|---------1-------|-3---------------|---------6-------|-5---3---1---0---|
|-----------------|---------5-------|-6---------------|-----------------|
|-----------------|-----------------|-----------------|-----------------|
  H       H         H       H         H       H         Q   Q   Q   Q

|-----------------|-----------------|-----------------|---------1-------|
|---------1-------|---------3-------|---------5-------|-3---------------|
|-3---------------|-5---------------|-6---------------|-----------------|
|-----------------|-----------------|-----------------|-----------------|
  H       H         H       H         H       H         H       H       

|-0---------------|-----------------|-----------------|-----------------|
|---------1-------|-3---------------|-----------------|-----2---2---2---|
|-----------------|---------5-------|-3---2-------3---|(3)--------------|
|-----------------|-----------------|-----------------|-----------------|
  H       H         H       H         Q   H       Q     Q   Q   Q   Q

Section C (1st Time)

|-----------------|-----------------|-----------------|-----------------|
|-3---------------|-3-----------0---|-1---------------|-1-----------2---|
|---------1-------|---------1-------|---------1-------|---------1-------|
|-----------------|-----------------|-----------------|-----------------|
  Q   Q   Q   Q     Q   Q   Q   Q     Q   Q   Q   Q     Q   Q   Q   Q   

|-----------------|-----------------|-----------------|-----------------|
|-3---------------|-3-----------0---|-1---------------|-------------2---|
|---------1-------|---------1-------|-----------------|-----------------|
|-----------------|-----------------|---------------4-|(4)--------------|
  Q   Q   Q   Q     Q   Q   Q   Q     Q   H       E E   H.          Q   

|-----------------|-----------------|-----------------|-----------------|
|-3---------------|-3-----------0---|-1---------------|-1-----------2---|
|---------1-------|---------1-------|---------1-------|---------1-------|
|-----------------|-----------------|-----------------|-----------------|
  Q   Q   Q   Q     Q   Q   Q   Q     Q   Q   Q   Q     Q   Q   Q   Q   

|-----------------|-----------------|-----------------|-----------------|
|-----------------|-----------------|-----------------|-1-0-------------|
|-----------------|-1-------3-------|---------1-------|-----4-3---------|
|-4-------4---5---|-----------------|-1---------------|-----------------|
  Q   Q   Q   Q     Q   Q   Q   Q     Q   Q   Q   Q     E E E E H

|-----------------|-----------------|
|-----------------|-1---3---1---0---|
|---------1-------|-----------------|
|-1---------------|-----------------|
  Q   Q   Q   Q     Q   Q   Q   Q 

Section A (4th Time)

|-----------------|-----------------|-----------------|---------1-------|
|---------1-------|---------3-------|---------5-------|-3---------------|
|-3---------------|-5---------------|-6---------------|-----------------|
|-----------------|-----------------|-----------------|-----------------|
  H       H         H       H         H       H         H       H       

|-0---------------|-----------------|-----------------|-----------------|
|---------1-------|-3---------------|-----------------|-----------------|
|-----------------|---------5-------|-3---------------|-3-----------3---|
|-----------------|-----------------|-----------------|-----------------|
  H       H         H       H         W                 H.          Q

|-----------------||
|-----------------||
|-3---------------||
|-----------------||
  W

Key to rhythm notations:


W - Whole Note/Semi-Brieve
H - Half Note/Minim
Q - Quarter Note/Crotchet       Q. - Dotted Quarter Note
E - Eight Note/Quaver           E. - Dotted Eight Note
S - Sixteenth Note/Semi-Quaver  S. - Dotted Sixteenth Note
Добавлено: 14.03.2016
Вам также может быть интересно:
Другие материалы по этой песне:
  • Аккорды и текст

Страница создана 14.03.2016
http://primanota.ru/steely-dan/east-st-louis-toodle-oo-chords.htm
Привет, Гость.
Предлагаем пройти революционный курс по гитаре.
Подарок от PrimaNota.Ru, забирай!