PrimaNota.ru - самый крупный в мире бесплатный архив песенных текстов, аккордов, табулатур и нот


Steely Dan - I Got The News - текст песни, бас-таба, видео

Регистрация Запомнить меня
Войти через:  Facebook Google Twitter Vk Yandex Mail.ru

Steely Dan - I Got The News - текст песни, бас-таба, видео

Печатать
Просмотров: 125
Авторы музыки: Donald Fagen, Walter Becker
Авторы текста: Donald Fagen, Walter Becker
                                   I Got The News
                                     Steely Dan

Bass                                                              Donald Fagen
                                                                 Walter Becker
As played by Chuck Rainey

Intro  

||------------------|-----------------|-----------------|------------------||
||o-----5-7---------|-----5-7---------|-----5-7---------|-----5-7---------o||
||o-3---------------|-3---------------|-3---------------|-3---------------o||
||------------------|-----------------|-----------------|------------------||
    Q   E.S E.S Q     Q   E.S E.S Q     Q   E.S E.S Q     Q   E.S E.S Q

Verse 1

|-----------------|-----------------|-----------------|-----------------|
|-----5-7---------|-----5-7-----5-5-|---5-------------|-----5-7-----5-5-|
|-3-------------x-|-3---------------|-3---------------|-3---------------|
|-----------------|-----------------|-----------3-3-5-|-----------------|
  Q   E.S E. E. E   Q   E.S E.E.S S   E E Q   E.S E E   Q   E.S E.E.S S

|-----------------|-----------------|-----------------|-----------------|
|-----5-7---------|-----5-7-----5-5-|---5-------------|-----5-7---------|
|-3-------------3-|-3---------------|-3---------------|-3---------------|
|-----------------|-----------------|-----------3-3-5-|-----------------|
  Q   E.S E. E. E   Q   E.S E.E.S S   E E Q   E.S E E   Q   E.S E.S Q   

|-----5-7-------5-|-----5-7---------|-----------------|-----------------|
|-3---------------|-3---------------|-----5-7---------|-----5-7---------|
|-----------------|-----------------|-3---------------|-3---------------|
|-----------------|-----------------|-----------------|---------------3-|
  Q   E.S E. E. E   Q   E.S E.S Q     Q   E.S E.S Q     Q   E.S E. E. E 

Chorus 1

|-----------------|-----------------|-----------------|/4---------------|
|-----------------|-----------------|-----------------|-----5---3---2---|
|-----------------|-----------------|-----------------|-----------------|
|-5---------------|-1---------------|-5---------------|-----------------|
  W                 W                 W                 Q   Q   Q   Q

|-----------------|-----------------|-----------------|
|-----5-7---------|-----5-7---------|-----------------|
|-3---------------|-3---------------|-5---------------|
|-----------------|-----------------|-------4-3-------|
  Q   E.S E.S Q     Q   E.S E.S Q     Q.    E H

|-----------------|-----------------|-----------------|-----------------|
|-----5-7---------|-----5-7---------|---5-------------|-----5-7---------|
|-3---------------|-3---------------|-3---------------|-3---------------|
|-----------------|---------------3-|-----------3-3-5-|-----------------|
  Q   E.S E.S Q     Q   E.S E.S E E   E E Q   E.S E E   Q   E.S E.S Q   

Verse 2

|-----------------|-----------------|-----------------|-----------------|
|-----5-7---------|-----5-7-----5-5-|---5-------------|-----5-7-----5-5-|
|-3-------------x-|-3---------------|-3---------------|-3---------------|
|-----------------|-----------------|-----------3-3-5-|-----------------|
  Q   E.S E. E. E   Q   E.S E.E.S S   E E Q   E.S E E   Q   E.S E.E.S S

|-----------------|-----------------|-----------------|-----------------|
|-----5-7---------|-----5-7-----5-5-|---5-------------|-----5-7---------|
|-3-------------3-|-3---------------|-3---------------|-3---------------|
|-----------------|-----------------|-----------3-3-5-|-----------------|
  Q   E.S E. E. E   Q   E.S E.E.S S   E E Q   E.S E E   Q   E.S E.S Q   

|-----------------|-----------------|-----------------|-----------------|
|-----------------|-----------------|-----5-7---------|-----5-7---------|
|-----3-5-------3-|-----3-5---------|-3---------------|-3---------------|
|-1---------------|-1---------------|-----------------|---------------3-|
  Q   E.S E. E. E   Q   E.S E.S Q     Q   E.S E.S Q     Q   E.S E. E. E 

Chorus 2

|-----------------|-----------------|-----------------|/4---------------|
|-----------------|-----------------|-----------------|-----5---3---2---|
|-----------------|-----------------|-----------------|-----------------|
|-5---------------|-1---------------|-5---------------|-----------------|
  W                 W                 W                 Q   Q   Q   Q

|-----------------|-----------------|-----------------|-----------------|
|-----5-7---------|-----5-7---------|---5-------------|-----5-7---------|
|-3---------------|-3---------------|-3---------------|-3---------------|
|-----------------|---------------3-|-----------3-3-5-|-----------------|
  Q   E.S E.S Q     Q   E.S E.S E E   E E Q   E.S E E   Q   E.S E.S Q   

|-----------------|-----------------|-----------------|-----------------|
|-----5-7---------|-----5-7---------|---5-------------|-----5-7---------|
|-3---------------|-3---------------|-3---------------|-3---------------|
|-----------------|---------------3-|-----------3-3-5-|---------------3-|
  Q   E.S E.S Q     Q   E.S E.S E E   E E Q   E.S E E   Q   E.S E.S E E 

Bridge

|-----------------|-----------------|-----------------|-----------------|
|-------7---------|-------7---------|-------7---------|-------7---------|
|-----7-----7-----|-----7-----7-x---|-----7-----7-x---|-----7-----7-----|
|-5-------------0-|-5-------------0-|-5-------------0-|-5-------------0-|
  Q   E.Q   E.  E   Q   E.Q   E S E   Q   E.Q   E S E   Q   E.Q   E.  E

|-----------------|-----------------|-----------------|-----------------|
|-------7---------|-----------------|-------3---------|-------3---------|
|-----7-----7-----|-----7-----------|-----3-----3-----|-----3-----------|
|-5-------------0-|-5-----5---2---0-|-1-------------0-|-1---------1-1-3-|
  Q   E.Q   E.  E   Q   E.Q   E.  E   Q   E.Q   E.  E   Q   E.Q   E S E

|-----------------|-----------------|-----------------|-----------------|
|-------7---------|-----------------|-------3---------|-------3---------|
|-----7-----7-----|-----7-----------|-----3-----3-----|-----3-----------|
|-5-------------0-|-5-----5---2---0-|-1-------------0-|-1---------1-1-3-|
  Q   E.Q   E.  E   Q   E.Q   E.  E   Q   E.Q   E.  E   Q   E.Q   E S E

|-----------------|-----------------|-----------------|-----------------|
|-----7-7---------|-3---3-------0-3-|-----7-7---------|-2-2-----2-2-----|
|-----------------|--------0--3-----|-----------------|-----------------|
|-5---------------|-----------------|-5---------------|-----------------|
  Q   E.Q   S Q     Q   E. E. E E E   Q   E.Q   S Q     S S Q   S S H

Solo

|-----------------|-----------------|-----------------|-----------------|
|-------7---------|-----------------|-------3---------|-------3---------|
|-----7-----7-----|-----7-----------|-----3-----3-----|-----3-----------|
|-5-------------0-|-5-----5---2---0-|-1-------------0-|-1---------1-1-3-|
  Q   E.Q   E.  E   Q   E.Q   E.  E   Q   E.Q   E.  E   Q   E.Q   E S E

|-----------------|-----------------|-----------------|-----------------|
|-------7---------|-----------------|-------3---------|-------3---------|
|-----7-----7-----|-----7-----------|-----3-----3-----|-----3-----------|
|-5-------------0-|-5-----5---2---0-|-1-------------0-|-1---------1-1-3-|
  Q   E.Q   E.  E   Q   E.Q   E.  E   Q   E.Q   E.  E   Q   E.Q   E S E

|-----------------|-----------------|-----------------|/4---------------|
|-----7-----------|-3---3-------0-3-|-----7-----------|-----5---4---2---|
|-----------------|--------0--3-----|-----------------|-----------------|
|-5-----5---------|-----------------|-5-----5---------|-----------------|
  Q   E.Q   S Q     Q   E. E. E E E   Q   E.Q   S Q     Q   Q   Q   Q

|-----------------|-----------------|-----------------|-----------------|
|-----5-7---------|-----5-7---------|---5-------------|-----5-7---------|
|-3---------------|-3---------------|-3---------------|-3---------------|
|-----------------|---------------3-|-----------3-3-5-|-----------------|
  Q   E.S E.S Q     Q   E.S E.S E E   E E Q   E.S E E   Q   E.S E.S Q  

Bridge 2 

||--------12--------|-------12--------|-------12--------|-----------------|
||o-----12----12----|-----12-------12-|-----12----12----|-----12----12----|
||o-10--------------|-10--------------|-10--------------|-10----10-----10-|
||---------------10-|-----------10----|--------------10-|-----------------|
    Q   E.Q   E. E    Q   E.Q   E. E    Q   E.Q   E. E    Q   E.Q   E. E  

|-----------------|-----------------|-----------------|------------------||
|-----5-7---------|-----5-7---------|---5-------------|-----5-7---------o||
|-3---------------|-3---------------|-3---------------|-3---------------o||
|-----------------|---------------3-|-----------3-3-5-|------------------||
  Q   E.S E.S Q     Q   E.S E.S E E   E E Q   E.S E E   Q   E.S E.S Q  

Solo 2

|-----------------|-----------------|-----------------|-----------------|
|-----------------|-----------------|-----------------|-----------------|
|-----------------|-------------5---|-----------5-----|-----------5-----|
|-3---3-3---3--3--|-3-------3-3---3-|-3-----3-----3-3-|-3-----3-----3---|
  Q   E.Q   E. E    Q.   Q  E.S S S   Q.    Q   S S Q   Q.    Q   E Q

Verse 3

|-----------------|-----------------|-----------------|-----------------|
|-----5-7---------|-----5-7-----5-5-|---5-------------|-----5-7---------|
|-3-------------3-|-3---------------|-3---------------|-3---------------|
|-----------------|-----------------|-----------3-3-5-|-----------------|
  Q   E.S E. E. E   Q   E.S E.E.S S   E E Q   E.S E E   Q   E.S E.S Q   

|-----------------|-----------------|-----------------|-----------------|
|-----------------|-----------------|-----5-7---------|-----5-7---------|
|-----3-5-------3-|-----3-5---------|-3---------------|-3---------------|
|-1---------------|-1---------------|-----------------|---------------3-|
  Q   E.S E. E. E   Q   E.S E.S Q     Q   E.S E.S Q     Q   E.S E. E. E 

Chorus 3

|-----------------|-----------------|-----------------|/4---------------|
|-----------------|-----------------|-----------------|-----5---3---2---|
|-----------------|-----------------|-----------------|-----------------|
|-5---------------|-1---------------|-5---------------|-----------------|
  W                 W                 W                 Q   Q   Q   Q

                                                             Repeat to fade
||------------------|-----------------|-----------------|------------------||
||o-----5-7---------|-----5-7---------|---5-------------|-----5-7---------o||
||o-3---------------|-3---------------|-3---------------|-3---------------o||
||------------------|---------------3-|-----------3-3-5-|------------------||
    Q   E.S E.S Q     Q   E.S E.S E E   E E Q   E.S E E   Q   E.S E.S Q  


Key to rhythm notations:

W - Whole Note/Semi-Brieve
H - Half Note/Minim
Q - Quarter Note/Crotchet       Q. - Dotted Quarter Note
E - Eight Note/Quaver           E. - Dotted Eight Note
S - Sixteenth Note/Semi-Quaver  S. - Dotted Sixteenth Note
Добавлено: 23.08.2015
Другие материалы по этой песне:
  • Аккорды и текст

Страница создана 06.07.2012
http://primanota.ru/steely-dan/i-got-the-news-chords.htm
Привет, Гость.
Предлагаем пройти революционный курс по гитаре.
Подарок от PrimaNota.Ru, забирай!