PrimaNota.ru - самый крупный в мире бесплатный архив песенных текстов, аккордов, табулатур и нот


Steam Powered Giraffe - Honey Bee - аккорды и текст, таба, бас-таба, видео

Регистрация Запомнить меня
Войти через:  Facebook Google Twitter Vk Yandex Mail.ru

Steam Powered Giraffe - Honey Bee - аккорды и текст, таба, бас-таба, видео

Печатать
Просмотров: 869
Honey Bee
Steam Powered Giraffe
-------------------------------------------------------------------------------
                             HoneyBee - Steam Powered Giraffe
-------------------------------------------------------------------------------
Tabbed by:Tb0nez

E-mail: Tb0nez1999@gmail.com

Tab Note: I marked this tab intermediate because of the obscure chords, but once you get them down, this is a 
really easy song. This is my first tab, but I'm pretty sure its accurate because I got these chords by watching 
The Spine's fingers VERY carefully during live show. Enjoy, please rate, and comment or email me with any 
questions!


Chords:

C5- x32013
C - x32010
C7 - x32310
Em - 022000
Am - x02210
Amadd4 - x00210
Fm - 133111
F7M   - 133210



Tuning: Standard Capo 1

e|----------3---3------------------------------------------------------------|
B|--------1---1-----------0---0---------1---1---------1---1------------------|
G|------0---------0-----0---0---------2---2---------0---0--------------------|
D|----2---------------2---------0---2---------0---2---------2----------------|
A|--3---------------2-------------0-------------3----------------------------|
E|---------------------------------------------------------------------------|

e|----------3---3------------------------------------------------------------|
B|--------1---1-----------0---0---------1---1---------1---1------------------|
G|------0---------0-----0---0---------2---2---------0---0--------------------|
D|----2---------------2---------0---2---------0---2---------2----------------|
A|--3---------------2-------------0-------------3----------------------------|
E|---------------------------------------------------------------------------|

e|----------3---3------------------------------------------------------------|
B|--------1---1-----------0---0---------1---1---------1----------------------|
G|------0---------0-----0---0---------2---2---------0------------------------|
D|----2---------------2---------0---2---------0---2--------------------------|
A|--3---------------2-------------0-------------3----------------------------|
E|---------------------------------------------------------------------------|


(Verse):
     C
     You didn't have to look my way,

     C
     Your eyes still haunt me to this day,

              Fm          C
     But you did, yes you did,


     You didn't have to say my name,

     C
     Ignite my circuits, start a flame,

             F7M  
     But you did,

          F7M  
     Oh, Turpentine, erase me whole,           ('Cause I)

           C
     Don't want to live my life alone,          (Well, I)

         F7M               F7M                    Amadd4
     Was waiting for you all my life,           (Oh, Oh)

                                                F7M  
     How,                                      (I, I)

     
     I,

(Spoken):
     Set me free, my,

(Chorus):

          F7M         C      Em      Am
     Honeybee,
 
          F7M         C      Em      Am
     Honeybee,


(Verse)


(Chorus)


(Bridge):
        F7M  
     Hello, goodbye, twas nice to know you,

     C
     How I find myself without you,

     F7M                               C
     That I'll never know,                     (That I'll never know)

      F7M                                C
      I let myself go,                           (I let myself go)

      F7M  
     Hello, goodbye, I'm rather crazy,

     C
     And I never thought I was crazy,

     F7M                               C
     But what do I know?                       (But what do I know?)

     F7M                                C
     I let myself go                            (I let myself go)

     Oh,

(Chorus)

(Post Chorus):
                                 (Honey-)
     F7M  
     Hello, goodbye, twas nice to know you,
    (Bee)

     C
     How I find myself without you,
     (eee)

     Em              Am
     That I'll never know,
     (eee------------eee, Honey-)

     F7M            C
     I let myself go,
     (Bee)

     Em
     Hello, goodbye, I'm rather crazy,
     (eee)

     Am
     And I never thought I was crazy,
     (eee)

     F7M                        C
     But what do I know?                (But what do I know?)

     F7M                                  C              F7M   (let ring into A Capella part)
     I let myself go,                    (I let myself go)

(A Capella Round):

     Hello Goodbye, Twas nice to know you,


     How I find myself without you,
     (That I'll never know)


     Hello Goodbye, I'm rather crazy,


     And I never thought I was crazy,
     (I let myself go)


     Hello Goodbye, Twas nice to know you,

     
     How I find myself without you,
     (But what do I know?)


     Hello Goodbye, I'm rather crazy,


     And I never thought I was crazy
     (Now you have to go)
     
Добавлено: 13.06.2014
Другие материалы по этой песне:
  • Аккорды и текст

Страница создана 08.07.2013
http://primanota.ru/steam-powered-giraffe/honey-bee-chords.htm
Привет, Гость.
Предлагаем пройти революционный курс по гитаре.
Подарок от PrimaNota.Ru, забирай!